By: George Gargov
 
Ok it learned this song from my neighbor and loved it but I didn't know the name
plaease e-mail me the song name and artist george.gargov@gmail.com
tablitry signs are basicly the same

This is a classical guitar song that you finger pick I will tab the rest when I learn it.

Sorry For I don't know who the artist is But thank you for creating the song

I will tab the rest just e-mail me the song name and artist PLEASE

Song: Unknown

Artist: Unknown
      
|----7------------7---------7--------------7--------|
|--------0-----------0---------0--------------0-----|
|-----------0-----------0---------0--------------0--|
|---------------------------------------------------|
|---------------------------------------------------|
|----0-------------------------------------0--------|


|----5------------3----------3----------2-----------|
|-------0------------0----------0----------0--------|
|----------0------------0----------0----------0-----|
|---------------------------------------------------|
|---------------------------------------------------|
|----------------------------0----------------------|
      pick only 3, slide to 7 then pick 7, slide to 12
                                s   s
|----0------------0------------3/7-7/12-------------|
|-------0------------0------------------------------|
|----------0------------0---------------------------|
|---------------------------------------------------|
|---------------------------------------------------|
|-----------------0---------------------------------|


|----12----------12-----------12------------12--------|
|-------0------------0------------0------------0------|
|----------0------------0------------0------------0---|
|-----------------------------------------------------|
|-----------------------------------------------------|
|----0---------------------------------------0--------|


|----10------------8-----------7-----------5----------|
|--------0------------5-----------5-----------5-------|
|-----------0------------5-----------5-----------5----|
|-----------------------------------------------------|
|------------------0----------------------------------|
|-----------------------------------------------------|


|----5-----------7-----------8----------|
|-------5-----------5-----------5-------|
|----------5-----------5-----------5----|
|---------------------------------------|
|----0----------------------------------|
|---------------------------------------|

O.K. I will not lie, this part is wierd and hard but sounds good when played right.
Lay down whole finger on the 7th frets like a bar cord then play the notes you will see.          

|----7-----------8-----------7-----------10----------|
|-------7-----------7-----------7--8---------7-------|
|----------8-----------8------------------------8----|
|----------------------------------------------------|
|----------------------------------------------------|
|----7-----------------------7------------7----------|

Still lay the finger on the 7th frets on all 6 trings!
|----8-----------7----------|
|-------7-----------7-------|
|----------8-----------8----|
|---------------------------|
|---------------------------|
|-----------------7---------|


|----7-----------5-----------3-----------2-----------0-----------|
|-------0-----------0-----------0-----------0-----------0--------|
|----------0-----------0-----------2-----------2-----------2-----|
|----------------------------------------------------------------|
|----------------------------------------------------------------|
|----------------------------2-----------------------------------|


|----2-----------2-----------2------------2----------|
|-------0-----------0-----------0------------0-------|
|----------2-----------2-----------2------------2----|
|----------------------------------------------------|
|----------------------------------------------------|
|----2------------------------------------2----------|


|----0-----------0-----------0-----------0----------|
|-------0-----------0-----------0-----------0-------|
|----------0-----------0-----------0-----------0----|
|---------------------------------------------------|
|---------------------------------------------------|
|----3-----------2------------0---------------------|


|----0---0---0---0---0---------0----------|
|-----------------------0--0------0--0----|
|-----------------------------------------|  /__________________                 
|-----------------------------------------|                    
|-----------------------------------------|                      
|----0---0---0---0------------------------|                       
                                                                   
                                                                    
|----4-----------4-----------4-----------4---------|                 |
|-------0-----------0-----------0-----------0------|                 |
|----------1-----------1-----------1-----------1---|                 |
|--------------------------------------------------|                 |   
|----0-----------------------------------0---------|                 |  
|--------------------------------------------------|                 | 
                                                                     |
                                                                     |   
|----2-----------0-----------0-----------2---------|                 |
|-------0-----------0-----------0-----------0------|                 |
|----------1-----------1-----------1-----------1---|                 |
|--------------------------------------------------|                 | 
|----------------------------------------0---------|                 | 
|--------------------------------------------------|                 | 
                                                                     |
                                                                     |
|----4---------|     This is how much I know                         | 
|-------0------|     to play this song                               |
|----------1---|     the rest I haven't                              |
|--------------|     learned because my neighbor                     |
|--------------|     moved. But again                                |
|--------------|     Thank You Chang for teaching                    | 
                     me this song. : )                               |
                                                                     |
There is probably much more to this song but                         |
Thats how much I know. It is probably right about                    |
99.9% correct.                                                       |
If you want you can make up an ending.                               |
Just Repeat  this  --------------------------------------------------|          


Questions Coments E-mail me george.gargov@gamil.com
                                        PLEASE DON'T SPAM
Hope You Like IT!!!!!!!!
Show more