Tabber: Tyler Young
Song: Dont really know what to call it yet
Tuning: Standard

I have gotten alot of s*** on this riff. I know its not the best but i decided to add more to it just to make it a little better than what it is

/ down stroke
\ up stroke
* accent

verse
e----------------------
B------------1---------
G-----2----2---2---2---
D---2---2--------2---2-
A-0--------------------
E----------------------x2


e----------------------
B------------0---------
G-----0----0---2---2---
D---2---2--------2---2-
A-2--------------------
E----------------------x2

e----------------------
B------------0---------
G-----0----0---0---0---
D---4---4--------4---4-
A-0--------------------
E----------------------x2


chrous
  *  *           *  *
e-0--0--0-0-0-0--0--0--0-0
B-0--0--0-0-0-0--0--0--0-0
G-1--1--1-1-1-1--1--1--1-1
D-2--2--2-2-2-2--2--2--2-2
A-2--2--2-2-2-2--2--2--2-2
E-0--0--0-0-0-0--0--0--0-0 
  /  /  / \ / \  /  /  / \

  *  *           *  *
e-------------------------
B-0--0--0-0-0-0--0--0--0-0
G-0--0--0-0-0-0--0--0--0-0
D-2--2--2-2-2-2--2--2--2-2
A-2--2--2-2-2-2--2--2--2-2
E-0--0--0-0-0-0--0--0--0-0 
  /  /  / \ / \  /  /  / \

  *  *           *  *
e-0--0--0-0-0-0--0--0--0-0
B-0--0--0-0-0-0--0--0--0-0
G-0--0--0-0-0-0--0--0--0-0
D-4--4--4-4-4-4--4--4--4-4
A-0--0--0-0-0-0--0--0--0-0
E-0--0--0-0-0-0--0--0--0-0 x2 then repeat whole thing twice
  /  /  / \ / \  /  /  / \

Fill
e-1-
B-3-
G-2-
D-0-
A-0-
E---

Verse 2

e---------1-------
B-----3-----2---2-
G---2---2-----3---
D-----------------
A-0---------------
E----------------- X2

e---------1-------
B-----3-----2---2-
G---2---2-----3---
D-0---------------
A-----------------
E----------------- X2 repeat whole thing twice

e----------------------
B------------1---------
G-----2----2---2---2---
D---2---2--------2---2-
A-0--------------------
E----------------------x2


e----------------------
B------------0---------
G-----0----0---2---2---
D---2---2--------2---2-
A-2--------------------
E----------------------x2

e----------------------
B------------0---------
G-----0----0---0---0---
D---4---4--------4---4-
A-0--------------------
E----------------------x2


chrous
  *  *           *  *
e-0--0--0-0-0-0--0--0--0-0
B-0--0--0-0-0-0--0--0--0-0
G-1--1--1-1-1-1--1--1--1-1
D-2--2--2-2-2-2--2--2--2-2
A-2--2--2-2-2-2--2--2--2-2
E-0--0--0-0-0-0--0--0--0-0 
  /  /  / \ / \  /  /  / \

  *  *           *  *
e-------------------------
B-0--0--0-0-0-0--0--0--0-0
G-0--0--0-0-0-0--0--0--0-0
D-2--2--2-2-2-2--2--2--2-2
A-2--2--2-2-2-2--2--2--2-2
E-0--0--0-0-0-0--0--0--0-0 
  /  /  / \ / \  /  /  / \

  *  *           *  *
e-0--0--0-0-0-0--0--0--0-0
B-0--0--0-0-0-0--0--0--0-0
G-0--0--0-0-0-0--0--0--0-0
D-4--4--4-4-4-4--4--4--4-4
A-0--0--0-0-0-0--0--0--0-0
E-0--0--0-0-0-0--0--0--0-0 x2 then repeat whole thing twice
  /  /  / \ / \  /  /  / \

e-1-
B-3-
G-2-
D-0-
A-0-
E--- strum slowly

There now its somewhat more tolerable so hopefully i can stop receiving crapy feed back. Despite what some of you who posted comments may believe, I AM NOT AN EMO KID!
Show more