(Intro)

E-------------------------------------
A-------------------------------------
D-------------------------------------
G-------------------------------------
B-0-0-0-2-0----0-0-0-2-0----0-0-0-2-0-
E-------------------------------------

(Main Riff)

E------------------------------------------------------
A-0-1-3-0-1-----0-----------------0-1-3-0-1-----0------
D------------2----0-2------------------------2-----0-2-
G------------------------------------------------------
B-----------------------0-0-0-2-0----------------------
E------------------------------------------------------

(Ending)

E----------------------0-
A----------------------0-
D---0-0-2-4-0-4-2-0----0-
G-0--------------------0-
B------------------------
E------------------------

At the end of the song just strum the 
last 4 strings and let it fade out
Show more