BAND: DRENGENE FRA ANGORA
SONG: THEME SONG
TABBED BY: ZJADOW (ME)
DATE: 22-12-2004


GUITAR 1

E|---------------------------------------------
B|-10-10-----10-12-10---8-8----8-10-8-13-13-11-
G|-------9-9----------9-----7-7----------------
D|---------------------------------------------
A|---------------------------------------------
e|---------------------------------------------

GUITAR 2

- LET ALL 'NOTES' RING! (LOW DISTORTED!)

E|-------------------
B|-10--10--8--8------
G|---9---9--7--7-----
D|-------------------
A|-------------------
e|-------------------
Show more