Another theme music tab for beginners

standard tuning

---------------------|-------------|------------------|------------|
---------------------|-------------|------------------|------------|
--2---2-2-----2---2-2|--2--------2-|-0---0-0---0---0-0|--0------0--|
---------------------|-----0--3----|------------------|-------2----|
---------------------|-------------|------------------|-----3------|
---------------------|-------------|------------------|------------|

---------------------|-------------|----------|---------|-----------|----------|
---------------------|----0--1--3--|--1-------|---------|-----------|----------|
--2---2-2---2---2-2--|--2----------|----2-0---|---------|--2---2-2--|--2------2|
---------------------|-------------|---------2|--0--0---|-----------|----0--3--|
---------------------|-------------|----------|---------|-----------|----------|
---------------------|-------------|----------|---------|-----------|----------|

-------------|--------------|-----------|-------------|
-------------|--------------|-----------|----0--1--3--|
------0--0--0|--0--------0--|--2----2-2-|-2-----------|
-------------|--------2-----|-----------|-------------|
-------------|-----3--------|-----------|-------------|
-------------|--------------|-----------|-------------|

-------------------|----------|
------1------------|----------|
---------2--0------|----------|
---------------2---|---0---0--|
-------------------|----------|
-------------------|----------|

again dont worry about this timing,its not hard
Show more