• Song:

    When The Rain Comes

  • Artist:

    Third Day

  • Album:

    Come Together

Intro
|13--------12--------10--------8--------6--------5--------3--------8|
|-------------------------------------------------------------------|   [x4]
|-------------------------------------------------------------------|
|-------------------------------------------------------------------|

0:27                                       0:34
|3~--------8~--------3~--------8~|         |3~---1~-----------------|
|--------------------------------|   [x1]  |------------5~---3~---1~|   [x1]
|--------------------------------|         |------------------------|
|--------------------------------|         |------------------------|

0:41
|13--------12--------10--------8--------6--------5--------3--------8|
|-------------------------------------------------------------------|   [x4]
|-------------------------------------------------------------------|
|-------------------------------------------------------------------|

1:20                                       1:25
|3~--------8~--------3~--------8~|         |3~---1~-----------------|
|--------------------------------|   [x1]  |------------5~---3~---1~|   [x1]
|--------------------------------|         |------------------------|
|--------------------------------|         |------------------------|

2:29
|13--------12--------10--------8--------6--------5--------3--------8|
|-------------------------------------------------------------------|   [x5]
|-------------------------------------------------------------------|
|-------------------------------------------------------------------|
Show more