sponsored links
Artist: Tool
Album: ├ćnima
Song: Eulogy
Tabbed by: Andrew (theglorifiedmalcontent)

Tuning: Dropped D - D, A, D, G

------------= Key =------------
h  hammer on        p  pull off
/  slide up         \  slide down
~  let ring         *  stop string
<> harmonic used    FX effects used
x  percussive mute

--------= Effects Key =--------
C  chorus on        c  chorus off
D  delay on         d  delay off (use a very fast delay setting)

I haven't yet found an accurate
tab for Eulogy...so I made my own.

Intro (0:12)      Intro II (1:33) (I think some synth effect is used for the part before this.)
G |--------|      G |9-9-9-9-----9-9-9-9-----9h10p9--|    |9-------------------------------|
D |--------| x12  D |--------------------------------| x4 |--------------------------------| x2
A |<5>-----|      A |--------------------------------|    |--------------------------------|
D |--------|      D |--------------------------------|    |--------------------------------|
FX C,D

Rest (1:57) (Guitar plays, NOT bass)

Verse I (2:08)
G |------------------------------------------------------------------|
D |14--14--14--14--x---x---14--14--14--14--x---12--14--15p14p12--12--| x9
A |------------------------------------------------------------------|
D |------------------------------------------------------------------|
FX c,d

Prechorus I (2:34)
G |------------------------------------------------------------------------------------------------|
D |14--14--14--14----------14--14--14--14----------------------------------------------------------| x1
A |----------------------------------------------------------------0-----------0---0-h-2-----------|
D |------------------------------------------------------------------------------------------------|

Chorus I (2:39)                                          Chorus II (3:09)
G |------------------------------------------------|     G |--------------------------------|
D |------------------------------------------------| x7  D |--------------------------------| x1
A |------------------------------------------------|     A |------------------------2-2-5\\\|
D |0h2---2-----0h2-----2-----2---2-5-5-5-5-5-9-----|     D |0h2---2-----0h2-----2-----------|

Verse II (3:12)
G |--------------------------------|     |--------------------------------|
D |--------------------------------| x12 |--------------------------------| x3
A |--------------------------------|     |--------------------------------|
D |2---//////10-10---5---5-5h6p0---|     |2-2-2-2-----2-2-2-2----x2h3p0---|

Prechorus II (3:55)
G |------------------------------------------------|
D |------------------------------------------------| x1
A |--------------------------------0-----0-0h2-----|
D |2-2-2-2-----2-2-2-2-----------------------------|

Chorus I (3:59) x4

Chorus III (4:12)
G |------------------------------------------------|
D |------------------------------------------------| x1
A |--------------------------------0-0-x-0-0-2-----|
D |0h2---2-----0h2-----2-----2---2-----------------|

Chorus I (4:17) x1

Chorus IV (4:21)
G |------------------------------------------------|
D |------------------------------------------------| x1
A |--------------------------------0-0-0-0-0-2-----|
D |0h2---2-----0h2-----2-----2---2-----------------|

Chorus I (4:25) x1
Chorus IV (4:29) x1

Postchorus I (4:34)
G |--------------------------------|    |-----------------|
D |--------------------------------| x3 |-----------------| x1
A |----------2-----0-0-0-0---2-----|    |--------2*-0*----|
D |5-5-5-5-------------------------|    |5-------------5*-|

Postchorus II (4:47)
G |--------------------------------|    |--------------------------------|
D |--------------------------------| x2 |--------------------------------| x1
A |------------3-------------------|    |------------3-------------------|
D |0h2---2---x---5---5---x-5h7-0---|    |0h2---2---x---5---5---x-5h6-----|
  |                                |    |
G |--------------------------------|    |----------------------------------------------------------------|
D |--------------------------------| x3 |----------------------------------------------------------------| x1
A |------------3-------------------|    |------------3---------------------------------------------------|
D |0h2---2---x---5---5---x-5h7-0---|    |0h2---2---x---5---5---5-5-5-0~----------------------------------|

Solo I (5:08)                            Solo II (5:19)
G |--------------------------------|     G |--------------------------------|
D |--------------------------------| x4  D |--------------------------------| x3
A |--------------------------------|     A |--------------------------------|
D |0h2-2-2-0-0-0h3-3-3/5-5-5-2-2-2-|     D |0h2-2-2-2-2-4-4-4-5-5-5-0-0-0-0-|
             *     *     * *   *  <-play these notes quietly

Solo III (5:27)
G |--------------------------------|
D |--------------------------------| x1
A |------------------------5h7-7-7-|
D |0h2-2-2-2-2-4-4-4-5-5-5---------|

Solo II (5:30) x3
Solo III (5:38) x1
Solo II (5:41) x3
Solo III (5:48) x1
Solo II (5:51) x3
Solo III (5:59) x1
Solo II (6:01) x3 (guitar plays the same part here)
Solo III (6:09) x1

Solo I Modification (6:12)
G |--------------------------------|    |--------------------------------|
D |--------------------------------| x3 |--------------------------------| x1
A |--------------------------------|    |--------------------------------|
D |0h2*----0~----3---3/5~--x-2-2-2-|    |0h2*----0~----3---3/5~----------|

Drum Solo Intro (6:22)
G |--------------------------------|    |----------------|
D |--------------------------------| x4 |----------------| x1
A |--------------------------------|    |----------------|
D |2------/9-9-9-10-\5-----5-5-5-5\|    |0~~~~-~~~-~~-~--| (let this note ring! do not stop it!)

Verse III (6:46)
G |------------|     |--------|
D |------------| x10 |--------| x1
A |------------|     |--------|
D |2-2-2-2-----|     |2-2-////|

Solo II (6:57) x4

Verse IV (7:07) (let the bottom notes ring out)
G |--------------------------------|
D |------4~--------------5-----4-0-| x4
A |---2~--------------0~-----------|
D |2~--------------0~--------------|

Solo II (7:28) x8
Solo I Modification (7:48) x3; x1

Outro I (7:59)
G |--------------------------------|    |--------------------------------|
D |--------------------------------| x2 |--------------------------------| x1
A |----2-2-2-2-2h3---3-------------|    |----2-2-2-2-2h3---3-------------|
D |2-------------------5---5-5-5-5-|    |2-------------------5---5-*-----|

Outro II (8:09)
G |------------------------------------------|    |------------|
D |------------------------------------------| x1 |------------| x7
A |------------------------------------------|    |------------|
D |------10----7-----\-0-2-*-----------10---\|    |2-2-2-2-----|
Show more
sponsored links
sponsored links