Tabbed by: tiffernyy
http://www.youtube.com/watch?v=iTHO6IX3Tp8
im pretty sure this is correct! strumming is kinda hard to explain so watch her video ! thanks
Tuning: Standard

Where did you come from baby
    dd    d (xx0231@1)    d(hit) (xx0231@1)uu    ud
e|--------------------------------------------------------------------------|
B|---9----11-------------14-----9-------------------------------------------|
G|---9----11-----13------14-----9-------------------------------------------|
D|---9----11-----13------14-----9-------------------------------------------|
A|---------------11---------------------------------------------------------|
E|---9----11-----12------14-----9-------------------------------------------|

and oh wont you take me there...
    dd-uxudd    dd-uxudd   (repeat with 1st part) Tenderoni you've got to be...
e|--------------------------------------------------------------------------|
B|-----------------9--------------------------------------------------------|
G|-----6-----------9--------------------------------------------------------|
D|-----6-----------9--------------------------------------------------------|
A|--------------------------------------------------------------------------|
E|-----5-----------9--------------------------------------------------------|

dont you know now is the perfect time...
       (same strum)     (watch vid)      (same strum)          ddd
e|-------------------------------------------------------------------------|
B|----------------4---------9------------------4-------10-------9----------|
G|------6---------4---------9---------6--------4----------------9----------|
D|------6---------4---------9---------6--------4-------11-------9----------|
A|-------------------------------------------------------------------------|
E|------5---------4---------9---------5--------4-------10-------9----------|

i want to love you (repeat until "and ill take you there")
      dd     d (xx0231@1)   ddd   (muted strum)  dd
e|---------------------------------------7----------------------------------|
B|---------------------------------------8----------------------------------|
G|-----2-----4------6--------------------9----------------------------------|
D|-----2-----4------6--------------------9----------------------------------|
A|---------------------------------------7----------------------------------|
E|-----2-----4------5--------------------7----------------------------------|

and ill take you there...////  Nothing can stop this burnin (go back to first part)
      (watch vid for rhythm)
e|--------------------------------------------------------------------------|
B|---------------------9----------------------------------------------------|
G|-----6-------4-------9----------------------------------------------------|
D|-----6-------4-------9----------------------------------------------------|
A|--------------------------------------------------------------------------|
E|-----5-------4-------9----------------------------------------------------|

after "ill take you there" (2x)
      d (xx0231@1) d (xx0231@1) d (xx0231@1) d (xx0231@1) (muted strum)  dd   d (xx0231@1)  d (xx0231@1)  (muted strum)
e|-------------------------------------------------------------------------|
B|-------------------------------------------------------------------------|
G|-------------------------------------------------------------------------|
D|----6---7---8---9-------------------9---10---11--------------------------|
A|----6---7---8---9-------------------9---10---11--------------------------|
E|----4---5---6---7-------------------7----8----9----------9/129b---------|

Pretty young thangs repeat after me
      dd   d (xx0231@1)  d (xx0231@1)/ dd   d (xx0231@1) d (xx0231@1)
Show more