Tab made by 6METAL6BASSIST6

Email: Petergriffinav@gmail.com

Bass comes in at 0:11              

||---------------------------------------------|
||---------------------------------------------| 
||----------5--44444444444444444444444444444454|
||5----3---------------------------------------|

||----------------------------------------|
||----------------------------------------| 
||---4---4-----4--4--4--4----4--4--4--4---|
||5---------3--------------5-------------3|

||------------------------------------|
||------------------------------------| x6 
||4--4------4--4-----4--4------4--4---|
||-00-000000-00---5---00-000000-00---3|

||-----------------------------------------|
||-----------------------------------------| 
||5--7--5-7-5-4-444444444444444-5--7------5|
||------------------------------------3-5--|

||-------------------------|
||-------------------------| 
||4--4--4--4---4--4--4--4--|
||-----------5------------3|

||------------------------------------|
||------------------------------------| x4 
||4--4------4--4-----4--4------4--4---|
||-00-000000-00---5---00-000000-00---3|

||-----------------------------------------|
||-----------------------------------------| 
||5--7--5-7-5-4-444444444444444-5--7------5|
||------------------------------------3-5--|

||-----------------------------------|
||-----------------------------------| 
||--4---4---4--4--4--4---4--4--4--4--|
||5-------3------------5------------3|

Not sure if this part is played right, hard to hear the bass.
||-----------------------------------------------------------------|
||-----------------------------------------------------------------| 
||-----------------------------------------------------------------|
||222222222222-2-2-3202-222222222222-22-22-22-222222222222-2-2-3202|

||------------------------|
||------------------------| 
||------------------------|
||222222222222-0-2-3-5-3-0|

||-----------------------------|
||-----------------------------| x3 
||4---2454---4574---4542-------|
||-000----000----000----0000000|

||-----------------------------|
||-----------------------------| 
||4---2454---4754---4542-------|
||-000----000----000----0000000|

||-------| |---------------|
||-------| |---------------| x3
||4-----4| |544444445447874|
||-------| |---------------|

||--------------------------------------------------|
||--------------------------------------------------|
||54445444544787454444-444-787454444-444-44-87587574|
||--------------------------------------------------|

Guitar solo
||--------------------------------------------------------------|
||--------------------------------------------------------------|
||444444444444444444---444444444444444444---444444444444444444--|
||-------------------5--------------------3--------------------5|

||-----------------------------------------------------------|
||-----------432321------------------------------------------|
||4444444444--------444444444444444444---444444444444444444--|
||-------------------------------------5--------------------3|

||--------------------------------------|
||--------------------------------432321|
||444444444444444444---4444444444-------|
||-------------------5------------------|

||-----------------------------|
||-----------------------------| x2 
||4---2454---4574---4542-------|
||-000----000----000----0000000|

||----------------------------------------------------------------|
||----------------------------------------------------------------|
||4---2454---4574---4542-------4---2454---4754---4542---------5--4|
||---------------------------------------------------------5------|
Show more