Tristania - Amnesia bass tab

Standard tuning


      H        H           S S S E  E  E  S E  E  E  E     H        H         
G||---------------------|-------------------------------|--------------------|
D||*--------------------|-------------------------------|--------------------|
A||*--------------------|-------------------------------|--------------------|
E||---0--------0--------|--0-0-0-0-----0--0-0-----0--L--|--8--------8--------|


  S S S E  E  E  S E  E  E  E        H        E  Q       E  Q    Q    Q    E   
--------------------------------||--------------------|-----------------------|
-------------------------------*||*-------------------|-----------------------|
-------------------------------*||*-------------------|-----------------------|
--8-8-7-7-----7--7-7-----7--L---||---0--------0--L----|--0--0----0----0----3--|


  E  H        E  E  E     E  Q    Q    E  E  E     E   4x
-----------------------|------------------------|------||
-----------------------|------------------4--3--|--0--*||
-----0--------0--L--L--|--0--3----3----3--------|-----*||
--L--------------------|------------------------|------||


   E  E  E  E  E  E  E  E     E  E  E  E  E  E  E  E   
---------------------------|--------------------------|
*--------------------------|--------------------------|
*--3--3--3--3--3--3--3--3--|--5--5--5--5--5--5--5--5--|
---------------------------|--------------------------|


  E  E  E  E  E  E  E  E     E  E  E  E  E  E  E  E        H        H         
--------------------------|---------------------------||---------------------|
--------------------------|--------------------------*||*--------------------|
--------------------------|--------------------------*||*--------------------|
--0--0--0--0--0--0--0--0--|--0--0--0--0--0--0--0--0---||---0--------0--------|


  S S S E  E  E  S E  E  E  E     H        H         
-------------------------------|--------------------|
-------------------------------|--------------------|
-------------------------------|--------------------|
--0-0-0-0-----0--0-0-----0--L--|--8--------8--------|


  S S S E  E  E  S E  E  E  E        H        E  Q       E  Q    Q    Q    E   
--------------------------------||--------------------|-----------------------|
-------------------------------*||*-------------------|-----------------------|
-------------------------------*||*-------------------|-----------------------|
--8-8-7-7-----7--7-7-----7--L---||---0--------0--L----|--0--0----0----0----3--|


  E  H        E  E  E     E  Q    Q    E  E  E     E     
-----------------------|------------------------|------||
-----------------------|------------------4--3--|--0--*||
-----0--------0--L--L--|--0--3----3----3--------|-----*||
--L--------------------|------------------------|------||


  E  E  E  E  E  E  E  E     E  E  E  E  E  E  E  E   
--------------------------|--------------------------|
--2--2--2--2--2--2--2--2--|--2--2--2--2--2--2--2--2--|
--------------------------|--------------------------|
--------------------------|--------------------------|


   E  E  E  E  E  E  E  E     E  E  E  E  E  E  E  E   
--/5--5--5--5--5--5--5--5--|--2--2--2--2--2-----0-----|
---------------------------|-----------------2-----4--|
---------------------------|--------------------------|
---------------------------|--------------------------|


  E  E  E  E  E  E  E  E     E  E  E  E  E  E  E  E   
--------------------------|--------------------------|
--2--2--2--2--2--2--2--2--|--2--2--2--2--2--2--2--2--|
--------------------------|--------------------------|
--------------------------|--------------------------|


   E  E  E  E  E  E  E  E     E  E  E  E  E  E  E  E   
--/5--5--5--5--5--5--5--5--|--2--2--2--2--2--2--2--2--|
---------------------------|--------------------------|
---------------------------|--------------------------|
---------------------------|--------------------------|


    E  E  E  E  E  E  E  E     E  E  E  E  E  E  E  E   
|---------------------------|--------------------------|
|*--------------------------|--2--2--2--2--------------|
|*--------------3--3--3--3--|--------------------------|
|---1--1--1--1--------------|--------------3--3--3--3--|


  E  E  E  E  E  E  E  E     E  E  E  E  E  E  E  E   
--------------------------|--------------------------|
--------------------------|--------------------------|
--0--0--0--0--0--0--0--0--|--0--0--0--0--0--0--0--0--|
--------------------------|--------------------------|


  E  E  E  E  E  E  E  E     E  E  E  E  E  E  E  E   
--------------------------|--------------------------|
--------------------------|--2--2--2--2--------------|
--------------3--3--3--3--|--------------------------|
--1--1--1--1--------------|--------------3--3--3--3--|


  E  E  E  E  E  E  E  E     E  E  E  E  E  E  E  E       W                 
--------------------------|---------------------------||-------------------|
--------------------------|--------------------------*||-------------------|
--5--5--5--5--5--5--5--5--|--5--5--5--5--5--5--5--5--*||-------------------|
--------------------------|---------------------------||--0----------------|


  W                     E  E  E  E  E  E  E  E     E  E  E  E  E  E  E  E   
-------------------||---------------------------|--------------------------|
-------------------||*--------------------------|--0--0--0--0--0--0--0--0--|
-------------------||*--3--3--3--3--3--3--3--3--|--------------------------|
--L----------------||---------------------------|--------------------------|


  E  E  E  E  E  E  E  E     E  E  E  E  E  E  E  E     
--------------------------|---------------------------||
--2--2--2--2--2--2--2--2--|--2--2--2--2--2--2--2--2--*||
--------------------------|--------------------------*||
--------------------------|---------------------------||


  E  E  E  E  E  E  E  E     E  E  E  E  E  E  E  E   
--------------------------|--------------------------|
--------------------------|--0--0--0--0--0--0--0--0--|
--3--3--3--3--3--3--3--3--|--------------------------|
--------------------------|--------------------------|


  E  E  E  E  E  E  E  E     S S E  E  E  S S E  S S E   
--------------------------|-----------------------------|
--2--2--2--2--2--2--2--2--|--0-2-2--2--2--0-2-2--0-2-2--|
--------------------------|-----------------------------|
--------------------------|-----------------------------|


  E  E  E  E  E  E  E  E     E  E  E  E  E  E  E  E   
--------------------------|--------------------------|
--------------------------|--0--0--0--0--0--0--0--0--|
--3--3--3--3--3--3--3--3--|--------------------------|
--------------------------|--------------------------|


  E  E  E  E  E  E  E  E     E  E  E  E  E  E  E  E   
--------------------------|--------------------------|
--2--2--2--2--2--2--2--2--|--2--2--2--2--2--2--2--2--|
--------------------------|--------------------------|
--------------------------|--------------------------|


  E  E  E  E  E  E  E  E     E  E  E  E  E  E  E  E   
--------------------------|--------------------------|
--------------------------|--0--0--0--0--0--0--0--0--|
--3--3--3--3--3--3--3--3--|--------------------------|
--------------------------|--------------------------|


  E  E  E  E  E  E  E  E     S S E  E  E  S S E  S S E   
--------------------------|-----------------------------|
--------------------------|--0-2-2--2--2--0-2-2--0-2-2--|
--------------------------|-----------------------------|
--0--0--0--0--0--0--0--0--|-----------------------------|


  E  E  E  E  E  E  E  E     E  E  E  E  E  E  E  E   
--------------------------|--------------------------|
--------------------------|--0--0--0--0--0--0--0--0--|
--3--3--3--3--3--3--3--3--|--------------------------|
--------------------------|--------------------------|


  E  E  E  E  E  E  E  E     E  E  E  E  E  E  E  E   
--------------------------|--------------------------|
--------------------------|--------------------------|
--------------------------|--------------------------|
--0--0--0--0--0--0--0--0--|--0--0--0--0--0--0--0--0--|


  E  E  E  E  E  E  E  E     E  E  E  E  E  E  E  E   
--------------------------|--------------------------|
--------------------------|--0--0--0--0--0--0--0--0--|
--3--3--3--3--3--3--3--3--|--------------------------|
--------------------------|--------------------------|


  E  E  E  E  E  E  E  E     E  E  E  E  E  E  E  E   
--------------------------|--------------------------|
--2--2--2--2--2--2--2--2--|--4--4--4--4--5--5--5--5--|
--------------------------|--------------------------|
--------------------------|--------------------------|


  E  E  E  E  E  E  E  E     E  E  E  E  E  E  E  E   
--------------------------|--------------------------|
--------------------------|--0--0--0--0--0--0--0--0--|
--3--3--3--3--3--3--3--3--|--------------------------|
--------------------------|--------------------------|


  E  E  E  E  E  E  E  E     E  E  E  E  E  E  E  E     W                 
--------------------------|--------------------------|-------------------|
--------------------------|--------------------------|-------------------|
--------------------------|--------------------------|-------------------|
--0--0--0--0--0--0--0--0--|--0--0--0--0--0--0--0--0--|--0----------------|


  W                   W                   W                 
-------------------|-------------------|-------------------|
-------------------|-------------------|-------------------|
-------------------|-------------------|-------------------|
--L----------------|--L----------------|--L----------------|


  W                  
-------------------||
-------------------||
-------------------||
--L----------------||




Duration Legend
---------------
W - whole
H - half
Q - quarter
E - 8th
S - 16th
T - 32nd
X - 64th
. - note dotted
|-n-|  - n-tuplets


Tablature Legend
----------------
L - tied note
x - dead note
g - grace note
(n) - ghost note
> - accentuded note
NH - natural harmonic
AH - artificial harmonic
TH - tapped harmonic
SH - semi harmonic
PH - pitch harmonic
h - hammer on
p - pull off
b - bend
br - bendRelease
pb - preBend
pbr - preBendRelease
brb - bendReleaseBend
\n/ - tremolo bar dip
\n - tremolo bar dive
-/n - tremolo bar Release up
/n\ - tremolo bar inverted dip
/n - tremolo bar return
-\n - tremolo bar Release down
S - shift slide
s - legato slide
/ -  slide into from below or out of upwards
\ -  slide into from above or out of downwards
~ - vibrato
W - wide vibrato
tr - trill
TP - tremolo picking
T - tapping
S - slap
P - pop
< - fade in
^ - brush up
v - brush down
Show more