• Song:

    At the End of This War

  • Artist:

    Trivium

Tabbed by: Connor Ford

Band:  Trivium
Song:  At The End Of This War
Album: Vengeance Falls (2013)


Tuning: Drop C# (C#, G#, C#, F#, A#, D#)
(Tune all strings down half a step then drop tune)



If you're fans of Trivium's early stuff, be sure to check out Shogun
and In Waves on my contributions!

Please rate, comment, correct, anything that will help :)





Hammer on:        h
Pull off:         p
Slide up:         /
Slide down:       \
Bend up:          BU(?)
Tapped note:      T
Vibrato:          ~~~
Pinch Harmonic:   PH
Natural Harmonic: NH
Dive Bomb:        DB
After Muting:     M
Pick slide:       X\\\ ('\' indicated duration)

Guitar 1:        Matt Heafy
Guitar 2:        Corey Beaulieu
Guitar 3:        Corey Beaulieu (Additional harmonies)


________________________________________________________________________________



Intro
Guitar 1 (Acoustic)
||-----------------------------------------------------------------|
|o---3-----3-----3-----3-----3-------3-----3-----3-----3-----3-----|
||-----2-----2-----2-----2-----2-------2-----2-----2-----2-----2---|
||-0-----0-----0-----0-----0-----0-0-----0-----0-----0-----0-----0-|
|o-----------------------------------------------------------------|
||-----------------------------------------------------------------|

|-----------1-----------------------------------------------------||
|-------3-----3-------------3---------------1-------1-----1-----1-o|
|---3-----3-----3-------3-----3---------2-----2-------0-----0-----||
|-----3-------------5-----5-----5---3-----3-----3-----------------||
|-1-------------------5---------------3-----------3-----3-----3---o|
|-----------------5---------------3-------------------------------||

|-------------------------0---1-----------------------------------|
|---3-----3-----3-----3---------3---3-----3-----3-----3-----3-----|
|-----2-----2-----2-----2---2---------2-----2-----2-----2-----2---|
|-0-----0-----0-----0-----0-----0-0-----0-----0-----0-----0-----0-|
|-----------------------------------------------------------------|
|-----------------------------------------------------------------|

|-----------1-----------------------------------------0-----------|
|-------3-----3-------------3---------------1-------1-------------|
|---3-----3-----3-------3-----3---------2-----2-------------------|
|-----3-------------5-----5-----5---3-----3-----3-----------------|
|-1-------------------5---------------3-----------3---------------|
|-----------------5---------------3-------------------------------|

Distorted guitars
|----------------|
|----------------|
|----------------|
|-0--------------|
|-0-Volume Swell-|
|-0--------------|


________________________________________________________________________________


Pre-verse
Guitar 1
|-----------------------------------------------------------------|
|-----------------------------------------------------------------|
|-----------------------------------------------------------------|
|-----------------------------------------------------------------|
|-5-------4h5---------------------5-------4h5-----8---7---5h7p5p4-|
|---0-000-----0-000-0-000-0-000-0---0-000-----0-0---0---0---------|
|
|Guitar 2
|-----------------------------------------------------------------|
|-----------------------------------------------------------------|
|-----------------------------------------------------------------|
|-0-M-------------------------------------------------------------|
|-0-M-------------------------------------------------------------|
|-0-M-------------------------------------------------------------|

Guitar 1
|-----------------------------------------------------------------|
|-----------------------------------------------------------------|
|-----------------------------------------------------------------|
|-----------------------------------------------------------------|
|-5-------4h5---------------------5-------4h5-----8---7---5h7p5p4-|
|---0-000-----0-000-0-000-0-000-0---0-000-----0-0---0---0---------|
|
|Guitar 2
|-----------------------------------------------------------------|
|-----------------------------------------------------------------|
|-----------------------------------------------------------------|
|-0-M-----0-M-----0-M-----0-M-----0-M-----0-M-----0-M-------------|
|-0-M-----0-M-----0-M-----0-M-----0-M-----0-M-----0-M-------------|
|-0-M-----0-M-----0-M-----0-M-----0-M-----0-M-----0-M-------------|


________________________________________________________________________________


Verse 1
Both guitars
||-----------------------------------------------------------------||
|o-----------------------------------------------------------------o|
||-----------------------------------------------------------------||
||-----------------------------------------------------------------||
|o-5-------4h5---------------------5-------4h5-----8---7---5h7p5p4-o|
||---0-000-----0-000-0-000-0-000-0---0-000-----0-0---0---0---------||

||------------------------------------------------------------------||
|o------------------------------------------------------------------o|
||------------------------------------------------------------------||
||------------------------------------------------------------------||
|o------------------------------------------------------------------o|
||-7-0-000-5h7-0-000-0-000-0-000-0-7-0-000-5h7-0-0-10-0-8-0-7h8p7p5-||


________________________________________________________________________________


Verse 2
Both guitars
|-----------------------------------------------------------------------|
|-----------------------------------------------------------------------|
|---------9-------10-----9----------------------------------10-----10---|
|-7----------------------------7/10-8-------12-------12---------------8-|
|---5-555---5-555----555---555------------------------------------------|
|-------------------------------------8-888----8-888----888----888------|

|-------------------------------------------------------------------|
|-------------------------------------------------------------------|
|---------9-------10-----9------------------------------------------|
|-7----------------------------7/10-8-----8-----8---7-----5-----5---|
|---5-555---5-555----555---555--------5-----5-----5---3-----3-----3-|
|---------------------------------------5-----5---------3-----2-----|

________________________________________________________________________________


Chorus
Both guitars
||----------------------------------||
|o----------------------------------o|
||-----5-----10-----9-----5-------5-||
||---7-----7------7-----7---7---7---||
|o-5-----5------5-----5-------5-----o|
||----------------------------------||

|-----------------------------------------------------------------|
|-------------------------------------------------5-----5-----5---|
|-----------------------------------------------------------------|
|-------------------------------------7-----7---------------------|
|-----5-----5-----8-----8-----8---------------3-3---3-3---3-3---3-|
|-8-8---8-8---5-5---5-5---5-5---5-3-3---3-3-----------------------|


________________________________________________________________________________


Repeat Verse 1 after both guitars play this:
|--------|
|--------|
|--------|
|--------|
|-12\----|
|-12\----|

Repeat Verse 2

Repeat Chorus


________________________________________________________________________________


Solo (CKB)
Guitar 1 (Rhythm)
|-----------------------------------------------------------------|
|-----------------------------------------------------------------|
|-----------------------------------------------------------------|
|-----------------------------------------------------------------|
|-----------------------------------------------------------------|
|-0-0-0-0-0-0-0-0-0-0-0-0-0-0-0-0-0-0-0-0-0-0-0-0-0-0-0-0-0-0-0-0-|

|-------------------------------------------------------------------------|
|-------------------------------------------------------------------------|
|-------------------------------------------------------------------------|
|-------------------------------------------------------------------------|
|-------------------------------------------------------------------------|
|-8-8-8-8-8-8-8-8-5-5-5-5-5-5-5-5-3-3-3-3-3-3-3-3-10-10-10-10-14-14-14-14-|

Guitar 2 (Lead)
|-----------------------------------|
|-----------------------------------|
|----/7~~~~-------10~~~~-9~~~~------|
|-----------7~~~~--------------10~~-|
|-----------------------------------|
|-----------------------------------|
|
|Guitar 3
|-----------------------------------|
|-----------------10~~~~-8~~~~------|
|------------------------------9~~~-|
|-----------------------------------|
|-----------------------------------|
|-----------------------------------|


Guitar 2
|-----------------------------------|
|-----------------------------------|
|----/7~~~~-------7---9---10---12---|
|-----------7~~~~-------------------|
|-----------------------------------|
|-----------------------------------|
|
|Guitar 3
|-----------------------------------|
|-----------------6---8---10---11---|
|-----------------------------------|
|-----------------------------------|
|-----------------------------------|
|-----------------------------------|

Guitar 2
|-13p10------10-13p10------10-13p10-----10p6---6-10p6---6-10p6---|
|------11--11--------11--11--------11-------8-8------8-8------8--|
|--------10------------10------------10------7--------7--------7-|
|----------------------------------------------------------------|
|----------------------------------------------------------------|
|----------------------------------------------------------------|

|-20p17------17-20p17------17-20p17-----15p12--12-----------------------|
|------18--18--------18--18--------18-----------------------------------|
|--------17------------17------------17------17?17p12-17p12--12---------|
|----------------------------------------------------------14?14\10-10~-|
|-----------------------------------------------------------------------|
|-----------------------------------------------------------------------|


Guitar 2
|-----------------------------------|
|-----------------------------------|
|----/7~~~~-------10~~~~-9~~~~------|
|-----------7~~~~--------------10~~-|
|-----------------------------------|
|-----------------------------------|
|
|Guitar 3
|-----------------------------------|
|-----------------10~~~~-8~~~~------|
|------------------------------9~~~-|
|-----------------------------------|
|-----------------------------------|
|-----------------------------------|


Guitar 2
|-----------------------------------|
|-----------------------------------|
|----/7~~~~-------7---9---10---12---|
|-----------7~~~~-------------------|
|-----------------------------------|
|-----------------------------------|
|
|Guitar 3
|-----------------------------------|
|-----------------6---8---10---11---|
|-----------------------------------|
|-----------------------------------|
|-----------------------------------|
|-----------------------------------|

Guitar 2
|-15p10------10-15p10------10-15p10-----17p13------13-17p13------17p13-----|
|------13--13--------13--13--------13--------15--15--------15--15-----15---|
|--------14------------14------------14--------17------------17---------17-|
|--------------------------------------------------------------------------|
|--------------------------------------------------------------------------|
|--------------------------------------------------------------------------|

|-22p17------17-22p17------17-22p17------17-22p17------17-22p17------17-|
|------20--20--------20--20--------20--20--------20--20--------20--20---|
|--------22------------22------------22------------22------------22-----|
|-----------------------------------------------------------------------|
|-----------------------------------------------------------------------|
|-----------------------------------------------------------------------|

Guitar 2
|-20BU(22)~~~~-20BU(22)\--|
|-------------------------|
|-------------------------|
|-------------------------|
|-------------------------|
|-------------------------|
|
|Guitar 3
|-24BU(25)~~~~-24BU(25)\--|
|-------------------------|
|-------------------------|
|-------------------------|
|-------------------------|
|-------------------------|


________________________________________________________________________________


Pre-Breakdown
Guitar 1
|----------------------------------------------------------------------|
|----------------------------------------------------------------------|
|----------------------------------------------------------------------|
|----------------------------------------------------------------------|
|----------------------------------------------------------------------|
|-0-0-0-0-----000-0-0-0-0-----000-0-0-0-0-----000-2BU(3)(2)---5BU(7)---|
|
|Guitar 2
|----------------------------------------------------------------------|
|----------------------------------------------------------------------|
|----------------------------------------------------------------------|
|----------------------------------------------------------------------|
|-------------------------------------------------4BU(5)(4)---7BU(8)---|
|----------------------------------------------------------------------|

Guitar 1
|----------------------------------------------------------------------|
|----------------------------------------------------------------------|
|----------------------------------------------------------------------|
|----------------------------------------------------------------------|
|----------------------------------------------------------------------|
|-0-0-0-0-----000-0-0-0-0-----000-0-0-0-0-----000-5BU(7)(5)---2BU(3)---|
|
|Guitar 2
|----------------------------------------------------------------------|
|----------------------------------------------------------------------|
|----------------------------------------------------------------------|
|----------------------------------------------------------------------|
|-------------------------------------------------7BU(8)(7)---4BU(5)---|
|----------------------------------------------------------------------|



________________________________________________________________________________


Breakdown       
Both guitars
|-----------------------------------------------------------------|
|-----------------------------------------------------------------|
|-----------------------------------------------------------------|
|-----------------------------------------------------------------|
|-------------------------------------------------4-4-4-4-7-7-7-7-|
|-0-0-0-0-----000-0-0-0-0-----000-0-0-0-0-----000-2-2-2-2-5-5-5-5-|

Guitar 1
|-----------------------------------------------------------------|
|-----------------------------------------------------------------|
|-----------------------------------------------------------------|
|-----------------------------------------------------------------|
|-------------------------------------------------7BU(8)(7)-4-4-4-|
|-0-0-0-0-----000-0-0-0-0-----000-0-0-0-0-----000-----------2-2-2-|
|
|Guitar 2
|-----------------------------------------------------------------|
|-----------------------------------------------------------------|
|-----------------------------------------------------------------|
|-----------------------------------------------------------------|
|-----------------------------------------------------------4-4-4-|
|-------------------------------------------------5BU(7)(5)-2-2-2-|

Both guitars
|-----------------------------------------------------------------|
|-----------------------------------------------------------------|
|-----------------------------------------------------------------|
|-----------------------------------------------------------------|
|-------------------------------------------------4-4-4-4-7-7-7-7-|
|-0-0-0-0-----000-0-0-0-0-----000-0-0-0-0-----000-2-2-2-2-5-5-5-5-|

Guitar 1
|----------------------------------------------------------------------|
|----------------------------------------------------------------------|
|----------------------------------------------------------------------|
|----------------------------------------------------------------------|
|----------------------------------------------------------------------|
|-0-0-0-0-----000-0-0-0-0-----000-0-0-0-0-----000-5BU(7)(5)---2BU(3)---|
|
|Guitar 2
|----------------------------------------------------------------------|
|----------------------------------------------------------------------|
|----------------------------------------------------------------------|
|----------------------------------------------------------------------|
|-------------------------------------------------7BU(8)(7)---4BU(5)---|
|-0-0-0-0-----000-0-0-0-0-----000-0-0-0-0-----000----------------------|

________________________________________________________________________________


Repeat Chorus

________________________________________________________________________________


Finish on:
Both guitars
|-----------------|
|-----------------|
|-----------------|
|-0---------------|
|-0---------------|
|-0---------------|

That's all of it, please rate :)
Show more