• Song:

    Time Bomb

  • Artist:

    Turbonegro

tuning: probably normal

   verse:  
e|-----------------------------------|
B|-----------------------------------|
G|------------------(b9)(b9)(b9)(b9)(b9)(b9)(b9)---|
D|--7-7-7-7-7-7-7-7-(b9)(b9)(b9)(b9)(b9)(b9)(b9)8--|
A|--7-7-7-7-7-7-7-7-7-7-7-7-7-7-7-8--|
E|--5-5-5-5-5-5-5-5-7-7-7-7-7-7-7-6--|

   chorus:
e|-------------------------------------|
B|-------------------------------------|
G|-------------------------------------|
D|--7-7-7-7-7-7-7-7-8-8-8-8-10-10-8-8--|
A|--7-7-7-7-7-7-7-7-8-8-8-8-10-10-8-8--|
E|--5-5-5-5-5-5-5-5-6-6-6-6-8--8--6-6--|


   ending:             
e|-----------------------------------|
B|-----------------------------------|
G|----------5-5-5-5-4-4-4-4----------|
D|--2-2-2-2-5-5-5-5-4-4-4-4-7-7-5-4--|
A|--2-2-2-2-3-3-3-3-2-2-2-2-7-7-5-4--|
E|--0-0-0-0-----------------5-5-3-2--|
Show more