Tabbed By: Josh Daley

Tuning: Eb Ab Db Gb Bb Eb



Intro:

------------------2-----2-----2---|
--2-----2-----2---3-----3-----3---|
--2-----2-----2---2-----2-----2---| x2
--2-2-2-2-2-2-0-2-0-0-0-0-0-0-0-0-|
--0-0-0-0-0-0-0-0-0-0-0-0-0-0-0-0-|
----------------------------------|



Verse/Interlude:

------------------2-----2-----2---|
--2-----2-----2---3-----3-----3---|
--2-----2-----2---2-----2-----2---| x2
--2-2-2-2-2-2-0-2-0-0-0-0-0-0-0-0-|
--0-0-0-0-0-0-0-0-0-0-0-0-0-0-0-0-|
----------------------------------|

------------------2-----0-2-0-0-0-|
--2-----0-2-0-0-0-3-----3-3-3-3-3-|
--2-----2-2-2-2-2-2-----2-2-2-2-2-|
--2-2-2-2-2-2-2-2-0-0-0-0-0-0-0-0-|
--0-0-0-0-0-0-0-0-0-0-0-0-0-0-0-0-|
----------------------------------|



Chorus:

--2-----2-----2---2-----2-----2---|
--2-----2-----2---3-----3-----3---|
--2-----2-----2---2-----2-----2---|
--4-4-4-4-4-4-4-4-0-0-0-0-0-0-0-0-|
--4-4-4---4-4---4-0-0-0-0-0-0-0-0-|
--2-2-2---2-2---2-----------------|

--2-----2-----2---2-----0-----2---|
--2-----2-----2---3-----3-----3---|
--2-----2-----2---2-----2-----2---|
--4-4-4-4-4-4-4-4-0-0-0-0-0-0-0-0-|
--4-4-4---4-4---4-0-0-0-0-0-0-0-0-|
--2-2-2---2-2---2-----------------|

------------------2-----0-2-0-0-0-|
--2-----0-2-0-0-0-3-----3-3-3-3-3-|
--2-----2-2-2-2-2-2-----2-2-2-2-2-| x2
--2-2-2-2-2-2-2-2-0-0-0-0-0-0-0-0-|
--0-0-0-0-0-0-0-0-0-0-0-0-0-0-0-0-|
----------------------------------|



I play this for the bridge:

---9--9--9--9--9--7--7--7--7--7-|
--10-10-10-10-10-10-10-10-10-10-|
---9--9--9--9--9--9--9--9--9--9-| x4
---7--7--7--7--7--7--7--7--7--7-|
--------------------------------|
--------------------------------|
Show more