Gone Away Tab by Unknown World


STANDARD TUNNING              tabbed by:Chris G.

INTRO           THIS SONG IS PLAYED HARD.STRUM THE NOTES HARD.

E---------------------------------------------------------------------
B---------------------------------------------------------------------
G---888--88--666--66--444--44-----------------------------------------
D---666--66--444--44--222--22--444--44--444--44-----------------------
A---666--66--444--44--222--22--222--22--222--22-----------------------
E---000--00--000--00--000--00--222--22--222--22-----PLAY INTRO 2 TIMES

RIFF1

E---------------------------------------------------------------------
B---------------------------------------------------------------------
G---------------------------------------------------------------------
D--555--55--555--55----444--44--444--44-----2-------------------------
A--555--55--555--55-00-222--22--222--22-----2-------------------------
E--333--33--333--33-00-222--22--222--22-----0-------------------------

 

PLAY RIFF1 4 TIMES,  ON LAST TIME PLAY 0/2/2.  AGAIN TABBED BY CHRIS G. ROCK ON!!!!!!
Show more