Unloco - Bruises
Submitted By: Stand Alone (projectwyze13@hotmail.com)

Tuning: Drop C - C G C F

Intro/Chorus
F|-----------------------------------------|
C|--------------------------------8--8--9--|
G|--7p6--6----7p6--6----7p6--6-------------|
C|-----------------------------------------|

Verse
F|-----------------------------------------|
C|--1----1----1----1----1----1----1----1---|
G|-----------------------------------------|
C|-----------------------------------------|

Bridge
F|-----------------------------------------|
C|----------9-9-9-9-7-7-7-7----------------|
G|--7-7-7-7-----------------6-6-6-6--------|
C|-----------------------------------------|
Show more