Artist:	Unsane
Song:	D Train
Album:	Blood Run

Bass tab transcribed by Voidhead

Tuning: D G C F (whole step down)

00:00 - 00:28

F|-----------------------------|
C|-----------------------------|
G|-----------------------------|
D|-0-2-2-2-2-2-3-3-3-3-0-0-0-0-|

00:29 - 00:37

F|----------------------------------|
C|-2-2-2-2-2-2-2-2--1-1-1-1---------|
G|--------------------------3-3-3-3-|
D|----------------------------------|

F|-------------------------------|
C|-2-2-2-2-2-2-2-2--2-1---2-1----|
G|----------------------3-----3--|
D|-------------------------------|

1:07 - 1:26

F|-----------------------------------------------------|
C|-----------------------------------------------------|
G|-2-2-2-5-5-5-2-2-5-5---------------------------------|
D|---------------------5-5-5-5-5-5-5-5-5-4-4-4-4-4-4-4-|
Show more