• Song:

    Scrape

  • Artist:

    Unsane

  • Album:

    Lambhouse: the Collecti...

verse
g-----------------------------
d-----------------------------
a-----------------------------
e-0-0-5-7-7-6-6-6-6-6-6-6-3---
play the verse 7 times untill the first chorus

chorus
g-----------------------------
d-----------------------------
a-----------------------------
e-12-11-10-6-6-6--------------
play the chorus 4 times

verse
g-----------------------------
d-----------------------------
a-----------------------------
e-0-0-5-7-7-6-6-6-6-6-6-6-3---
play this verse 7 to 8 times untill the second chourus

chorus
g-----------------------------
d-----------------------------
a-----------------------------
e-12-11-10-6-6-6--------------
play 7 times

bridge
g------------------------------
d------------------------------
a------------------------------
e-0-2-0-2-0-2-0-2-0-2-0-2-3-3-3
play 8 times then after the 8th time play


e-3-3-3-3-3-3-3-3-2-2-2-2-2-2-2-2
play this once

then back to the verse and play 4 times
then the bridge 7 times and the end bit once
Show more