• Song:

    Bass Scales

  • Artist:

    Unsigned

sponsored links
p - pull off 
      b - bend string up
      r - release bend
      / - slide up
       - slide down
      v - vibrato (sometimes written as ~)
      t - right hand tap
      x - play 'note' with heavy damping
~   = Vibrato (Or With Your Finger)
^   = Bend (Push The Strings Up Or Down)
/   = Slide Up
\   = Slide Down
H   = Hammer On
P   = Pull Off
_   = Let Ring
>   = Pick Slide 
P.M.= Palm Muted
#   = Harmonics

Alright, I think there are enough scales to make you happy

A Ionian                       B Dorian 
G :-----------------------------------------------4------
D :----------------4--6--7---------------4--6--7---------
A :-------4--5--7---------------4--5--7------------------
E :-5--7---------------------7---------------------------
  
  C# Phrygian                 D Lydian
G :-------------------4--6------------------4--6--7------
D :----------4--6--7---------------4--6--7---------------
A :-4--5--7------------------5--7------------------------
E :------------------------------------------------------
    
  E Mixolydian               F# Aeolian
G :-------------4--6--7--9------------4--6--7--9--11-----
D :----4--6--7---------------4--6--7---------------------
A :-7----------------------------------------------------
E :------------------------------------------------------

G# Locrian                     A Octave
G :-------4--6--7--9--11--13------4--6--7--9--11--13-14-
D :-6--7-----------------------7-------------------------
A :------------------------------------------------------
E :------------------------------------------------------
 
Ionian                   A Dorian
G :------------------------------------------------------
D :----------------4--6--7---------------------5--7-----
A :-------4--5--7---------------------5--7--9------------
E :-5--7---------------------5--7--8---------------------
   
   A Phrygian                A Lydian
G :------------------------------------------------------
D :-------------------5--7------------------4--6--7------
A :----------5--7--8---------------4--6--7---------------
E :-5--6--8------------------5--7------------------------
   
A Mixolydian                 A Aeolian
G :------------------------------------------------------
D :----------------4--5--7---------------------5--7------
A :-------4--5--7---------------------5--7--8------------
E :-5--7---------------------5--7--8---------------------
    
A Locrian                     A Super Locrian
G :------------------------------------------------------
D :-------------------5--7----------------------5--7-----
A :----------5--6--8-------------------4--6--8-----------
E :-5--6--8-------------------5--6--8-------------------- 
   
A Phrygian Dominant          A Lydian Dominant
G :------------------------------------------------------
D :-------------------5--7------------------4--5--7------
A :----------5--7--8---------------4--6--7---------------
E :-5--6--9------------------5--7------------------------

A Harmonic Minor
G :------------------------------------------------------
D :-------------------6--7-------------------------------
A :----------5--7--8-------------------------------------
E :-5--7--8----------------------------------------------
    
 A diminished 
G :------------------------------------------------------
D :-------------------4--6--7----------------------------
A :----------5--6--8-------------------------------------
E :-5--7--8----------------------------------------------
  
                       Half Tone
e :------------------------------------------------------
B :------------------------------------------------------
G :------------------------------------------------------
D :-------------------4--5--7----------------------------
A :----------4--6--7-------------------------------------
E :-5--6--8----------------------------------------------
   
                      Whole Tone
e :------------------------------------------------------
B :------------------------------------------------------
G :------------------------------------------------------
D :----------------5--7----------------------------------
A :-------4--6--8----------------------------------------
E :-5--7-------------------------------------------------

Penatonic     
G :----------------2-------------------------------------
D :----------2--4-----------------------5--7-------------
A :----2--4-----------------------5--7-------------------
E :-5-----------------------5--8-------------------------
  
Enigmatic Scale              Hungarian Minor
G :------------------------------------------------------
D :-------------------6--7----------------------6--7-----
A :----------6--8--9-------------------6--7--8-----------
E :-5--6--9-------------------5--7--8--------------------
    
A Blues Scale
G :------------------------------------------------------
D :----------------5--7----------------------------------
A :-------5--6--7----------------------------------------
E :-5--8-------------------------------------------------

A Mixo Blues
G :---------------------------------------------------------
D :-------------------5--7-----7--5--------------------------
A :-------4--5--6--7-------------------7--6-5--4-------------
E :-5--8-------------------------------------------8--5------

ENJOY!!!
Show more
sponsored links
sponsored links