• Song:

    Insane

  • Artist:

    Unsigned

sponsored links
hi leute hier unsr erstes lied: Insane! wir wurden schon oft gefragt, ob wir es nicht mal transkripieren wollen, aber nun ist es soweit! Hoffentlich habt ihr SpaƟ unser Lied nachzuspielen.


Bass beginnt 2mal mit:

g-----------------------------------------
d-----------------------------------------
a----2-2-2--3-3-3-------------------------
E---------------3-3-3--2-2-2--------------

Dann steigen Gitarre 1 und 2 ein und spielen diesen Riff mit Powerakkorden, aber verzerrt!!!

Solo:

e------------------------------------7-9----7-9-10-12-11-9-7-7-8-7-6---
b-----------------------7-8---7-8-10-----10--------------------------8-
g---7-9----5-7--4-5---9-----9------------------------------------------
d--------9----------4--------------------------------------------------
a----------------------------------------------------------------------
E----------------------------------------------------------------------

spielt das solo 2 mal!!

Jetzt die Reihenfolge:
Der Bass Spielt sein Intro 2 mal dann spielt die Gitarre das selbe mit Powerakkorden 24 mal danach spielt die leadgitarre das solo 2 mal. danach nochmal das andere 8mal und fertig!!

Jetzt der text:

I was her
she was mine

i`d think 
about killing her

Chorus:

Insane!
Insane!
Insane!
Insane!

We are two
well murderers

and kill all
other ppeple

Chorus:

Insane!
Insane!
Insane!
Insane!

Now we take 
the chance

we kill 
ourselfes YEAHHH!!

Chorus:

INSANE!! YEAHH!
INSANE!! YEAHH!
INSANE!! YEAHH!
Insane
Show more
sponsored links
sponsored links