• Song:

    Random Acts Of Dumbness - Dysfunkshanal

  • Artist:

    Unsigned

sponsored links
~ = Let ring
/ = Slide down
H = hammer
b = bend



|------------ x4  (1- just guitar)
|------------     (2- bass joins)
|------------     (4- Drums Jooin)
|------------
|--3333----55
|-------33---


Verse
|------------------ x8
|------------------
|---5555------77---
|---5555--55--77---
|---3333--55--55---
|---------33-------

Pre Chorus
|----------------- x4
|-----------------
|---55------------
|---55--55--3333--
|---33--55--3333--
|-------33--1111--

Chorus
|-------------------------------------------------------------------------- x1
|--------------------------------------------------------------------------
|--55555555------------77777777------------55555555------------77777777----
|--55555555--55555555--77777777--55555555--55555555--55555555--77777777--5~-
|--33333333--55555555--55555555--55555555--33333333--55555555--55555555--5~-
|------------33333333------------33333333------------33333333------------3~-

Solo
|--5555------9--5-2-7-7-4-7-5-8-1-6-6---5555-------33--5-3-2--2-0--4-3-2-1-0- x2
|--------55------------------------------------55----------------2b--
|---------------------------------------------------
|---------------------------------------------------
|---------------------------------------------------
|---------------------------------------------------


Order:
Intro
Verse
Pre CHorus
Chorus
Verse
Pre Chorus 
Chorus
Solo
Pre CHorus
Chorus
Chorus (with diiferent words)
Show more
sponsored links
sponsored links