• Song:

    Safety First - Any Given Chance

  • Artist:

    Unsigned

sponsored links
hey ... this is the back up guitar to any given chance ... im not going to do the full guitar unless rich wants to or wants/allows me too ... so like ... yeah heres the simple back up guitar riff ... just repeat the entire song through with the second one ... otherwise the first only goes for intro/interlude


         INTRO/INTERLUDE
E|------------------------------------------------------------------------------
B|------------------------------------------------------------------------------
G|--------------------------------------------------5---------------------------
D|-3-------------3---------------3----------------------------------------------
A|------------------------------------------------------------------------------
E|------------------------------------------------------------------------------

VERSE
E|-----------------------------------------------------8-8-8-8-----------------
B|------------------------------------------8---7--7---8-8-8-8-----------------
G|-----------7--------------7--------------------------------------------------
D|----5-------------5--------------5-------------------------------------------
A|-----------------------------------------------------------------------------
E|-----------------------------------------------------------------------------

REFRAIN
E|-----------------------------------------------------------8-----8---8---8------------
B|---------------------------------------8-8-7-7-7-7-7-7-7-7-8-8-8-8-8-8-8-8------------
G|-----------7-7-7-7---------7-7-7-7----------------------------------------------------
D|---5-5-5-5---------5-5-5-5---------5-5------------------------------------------------
A|--------------------------------------------------------------------------------------
E|--------------------------------------------------------------------------------------


well that should be about it ... not that hard but sounds really nice with the song so ... yeah its my irst tab hope you like it ... if you heard our stuff and want more than email me ttyl
Show more
sponsored links
sponsored links