• Song:

    Vience - You Wouldn_ Know

  • Artist:

    Unsigned

sponsored links
2nd guitar
----------------------|
--7---7---7---7--ect.-|
----------------------|
----------------------|
----------------------|
----------------------|




intro
-------------------------14-14--9-7----3-5-6-1---------|
-------------------------12-12-------------------------|
-------------------------------------------------------|
------------------------------------------------2------|
-1s-5-5-5-7-5-4-----------------------------------2-2-3|
---------------5-5-2-0---------------------------------|

verse
-------------------------------------------------|
-------------------------------------------------|
----9-9---7-7-7-7----11-11-11-11----------9------|x2
----7-7---5-5-5-5-----7--7--7--7----------7------|
0------------------------------------------------|
-------------------------------------------------|

chorus
------------------------------------------------------|
---------0--0--0--------------------0-----------------|
------6----------6----------------8----------8--------|
----6--------------6-----------8-------8--8-----------|
--4------------------4------6-------------------4-----|
------------------------------------------------------|


verse
-------------------------------------------------|
-------------------------------------------------|
----9-9---7-7-7-7----11-11-11-11----------9------|x2
----7-7---5-5-5-5-----7--7--7--7----------7------|
0------------------------------------------------|
-------------------------------------------------|


chorus
------------------------------------------------------|
---------0--0--0--------------------0-----------------|
------6----------6----------------8----------8--------|
----6--------------6-----------8-------8--8-----------|
--4------------------4------6-------------------4-----|
------------------------------------------------------|

Solo
--------------------------------|
--------------------------------|
--------------------------------|
--9-9-9--0-0-0------------------|
--9-9-9--0-0-0------------------|
--7-7-7--7-7-7---10-9--5--2-----|

chorus
-------------------------------------------------------------|
---------0--0--0--------------------0------------------------|
------6----------6----------------8----------8---------------|
----6--------------6-----------8-------8--8------------------|
--4------------------4------6-------------------4--4-4-4-4---|
-------------------------------------------------------------|
Show more
sponsored links
sponsored links