• Song:

    Because Of You

  • Artist:

    Unwritten Law

  • Album:

    Here's to the Mourning

+++++++++++++++++++++++++++++++++
| Unwritten Law- Because Of You |
+++++++++++++++++++++++++++++++++


"That satisfaction lies in your hands girl..."

Tuning: EADG


Verse
"I see the color in your eyes..."
1.
G|-----------------------------------------------------------------------|
D|-----------------------------------------------------------------------|
A|-------------------------------------------0h2-2~----------------------|--x2
E|-0h4-4x--------0h4-4x----0h2-2x----0-0~--------------2-2~----0h2-2-2h3-|

Chorus
"Because of you, you..."
2.
G|--------------------------------------------|
D|--------------------------------------------|
A|------1111-2222------------222--------2~-1~-|
E|-4444-----------2222-0000-0----2222-2-------|

"Because of you, you..."
3.
G|--------------------------------------------|
D|--------------------------------------------|
A|------1111-2222------------222--------------|
E|-4444-----------2222-0000-0----2222-2-2-2h3-|

Verse
"And I feel the warmth in your touch..."
4.
G|-----------------------------------------------------------------------|
D|-----------------------------------------------------------------------|
A|-------------------------------------------0h2-2~----------------------|--x2
E|-0h4-4x--------0h4-4x----0h2-2x----0-0~--------------2-2~----0h2-2-2h3-|

Chorus
"Because of you, you..."
5.
G|--------------------------------------------|
D|--------------------------------------------|
A|------1111-2222------------222--------2~-1~-|
E|-4444-----------2222-0000-0----2222-2-------|

"Because of you, you..."
6.
G|-----------------------------------------|
D|-----------------------------------------|
A|------1111-2222------------222-----------|
E|-4444-----------2222-0000-0----2222-2222-|

Bridge
7.
G|------------------------------------------------------------------------|
D|------------------------------------------------------------------------|
A|-------------------------------------------------------77777777-6666-9x-|
E|-44444444-22222222-00000000-22222222-44444444-22222222------------------|

Chorus
"Because of you, you..."
8.
G|--------------------------------------------|
D|--------------------------------------------|
A|------1111-2222------------222--------2~-1~-|
E|-4444-----------2222-0000-0----2222-2-------|

"Because of you, you..."
9.
G|-----------------------------------------|
D|-----------------------------------------|
A|------1111-2222------------222-----------|
E|-4444-----------2222-0000-0----2222-2222-|

Outro
10.
G|---------------------------------------------------------------------------------|
D|---------------------------------------------------------------------------------|
A|---------------------------------------------------------------------------------|
E|-0h4-4x----0h4-4x----0h4-4x----0h4-4x----0h4-4x----0h4-4x----0h4-4x----0h4-4x----|



Lyrics:


I see the color in your eyes
They set me free and they get me high
No sister flower will be denied, girl
The heat of the affection a fragile mind

Because of you 
my dreams came true

And I feel the warmth in your touch
My ego trips I can't get enough
That satisfaction lies in your hands girl
I wrote this song so you'll understand



+++++++++++++++++++++++++++++++++
| RaiLeff                       |
| Underground__Dora@Hotmail.Com |
+++++++++++++++++++++++++++++++++
Show more