• Song:

    Cpk

  • Artist:

    Unwritten Law

  • Album:

    Unwritten Law [Australi...

Intro: 
G|----------------------------------------------------| 
D|----------------------------------------------------| 
A|----------------------------------------------------| 
E|-------------------------3--------------------------| 

Verse: 
G|-----------------------------------------------------------|
D|------------53-----75-----31-------------------------------| 
A|-------33-3---55-5---11*-1----------33-333--55-555--77-7-5-| 
E|-33-333----------------------33-333------------------------| 

Chorus: 
G|-------------------------------------------------------| 
D|------------------235-----235--------------------------| 
A|--------------33-3----33-3----------33-333--55-555--33-| 
E|-33-333--33-333----------------33-333------------------| 

G|-----------------------------------------------------| 
D|-----------------------------------------------------| 
A|-333-------33-3-55-----------------------------------| 
E|----33-333-------------------------------------------| 

Solo: 
G|------------------------------------------------------------| 
D|------------------------------------------------------------|
A|-------33-333--55-555--11-111--55-555--11-111-33-333-11-111-| 
E|-33-333------------------------------------------33-3-------| 

G|-----------------------------------------------------|
D|-----------------------------------------------------|
A|----33-333-------------------------------------------| 
E|-33--------55-555------------------------------------| 

Interlude: 
G|------------------------------------------------------|
D|-----------------53----57-----------------------------| (2x) 
A|-----53-----75--3----57---------------3-3-5-----------| 
E|-3-3----5-5----------------33333333-------------------|
Show more