• Song:

    Falling Down

  • Artist:

    Unwritten Law

  • Album:

    Unwritten Law [Australi...

*= slight ring 

Intro: (Guitar Intro) (Plays this when drums start) 
G|---------------------------------------------------------------------------| 
D|---------------------------------------------------------------------------| 
A|-----------3---------------------------------------------------------------| 
E|-5-5-5-5-------------------------------------------------------------------| 

Verse: 
G|---------------------------------------------------------------------------| 
D|---------------------------------------------------------------------------| 
A|------------3-3------------------------------------------------------------| 
E|-5-5-5-5-------3-----------------------------------------------------------| 

G|---------------------------------------------------------------------------| 
D|---------------------------------------------------------------------------| 
A|-----------8-8-8-8--3-3-3-3--5-5-5-5---------------------------------------| 
E|-5-5-5-5-------------------------------------------------------------------| 

Chorus: 
G|---------------------------------------------------------------------------| 
D|-3-3-3-3-------------------------------------------------------------------| 
A|-----------3-3-3-3---------------------------------------------------------| 
E|---------------------3-3-3-3-3-3-3-3---------------------------------------| 

Bass Solo: 
G|---------5*----------------------------------------------------------------| X3 
D|-7-7-7-7----5--------------------------------------------------------------| 
A|---------------------------------------------------------------------------| 
E|---------------------------------------------------------------------------| 

Bass solo: (Slight Variation) 
G|---------------------------------------------------------------------------|X1 
D|-7-7-7-7-7-7--5-6----------------------------------------------------------| 
A|---------------------------------------------------------------------------| 
E|---------------------------------------------------------------------------| 

Bass Solo: 
G|----------5*---------------------------------------------------------------|X3 
D|-7-7-7-7----5--------------------------------------------------------------| 
A|---------------------------------------------------------------------------| 
E|---------------------------------------------------------------------------|
Show more