sponsored links
Valvonauta Tab by Verdena


TABBED BY MELOZ

Questo  il tab di valvonauta come viene eseguito live, cio con una sola chitarra.
Nell'album  presente una seconda chitarra che per esempio alla fine del ritornello
continua con gli slide sul Mi basso.

[riff]

  A                                E                         E\B
|------------------------------------------------------------------|
|------------------------------------------------------------------|
|------------------------------------------------------------------|
|-6-6-6-7-7-9-9----6-6-6-7-7-9-9---6-6-6-6-6-6-6-6-6-6-6-6-6-6-6-6-|
|-0-0-0-0-0-0-0-00-0-0-0-0-0-0-0-00--------------------------------|
|----------------------------------0-0-0-0-0-0-0-0-0-0-0-0-0-7-7-7-|

  A                                   E
|----------------------------------------------------------------------|
|----------------------------------------------------------------------|
|----------------------------------------------------------------------|
|-6-6-6-7-7-9-9----6-6-6/11-11-11-11--6-6-6-6-6-6-6-6-6-6-6-6-6-6------|
|-0-0-0-0-0-0-0-00-0-0-0-0--0--0--0-00---------------------------------|
|-------------------------------------0-0-0-0-0-0-0-0-0-0-0-0-0-0-/12\-|


   [end_riff]


#riff
ora con batteria e basso


[verso]

  A                B                C#                         E
Show more
sponsored links
sponsored links