Intro:
:-------------:---:-------------:---:
:-------------:-1-:-------------:---:
:-------------:-2-:-------------:-0-:
:---------5---:-2-:---------5---:-2-:
:-----5h7---7-:-0-:-----5h7---7-:-2-:
:-5h7---------:---:-5h7---------:-0-:
                Am                Em
:-------------:
:-------------:
:-------------:
:---------5---:
:-----5h7---7-:
:-5h7---------:

A5 
Excuse me my heart is cold
G5
Excuse me I have to go
C5
All these people all around
E:-------:
B:-------:
G:-------:
D:-------:
A:-3-2---:
E:-----3-:
E5
Asking what will happen now

:-------------:
:-------------:
:-------------:
:---------5---:
:-----5h7---7-:
:-5h7---------:

A5
A lot of things went through my head
G5
How could I have been so sad
C5
And how these feelings are around
E:---------:
B:---------:
G:---------:
D:---------:
A:-3-2-----:
E:-----3-2-:

E5
Can go away she said:
G5              G5
"I traveled the world trying to get high
C5         D5
But now is time to say goodbye
G5        G5
So excuse me but I have to go
C5        D5                  E5
Keep the words I said so far


:-------------:
:-------------:
:-------------:
:---------5---:
:-----5h7---7-:
:-5h7---------:

(Verso)
I never was afraid
'Cause a dream to hold
You hands someday
And say "let's do it again"
Oh this day will come
But one feeling I can't refrain
If at least I could just pretend
That one more night
You're not away

(Refr?o)
I traveled the world trying to get high
But now is time to say goodbye
So excuse me but I have to go
Keep the words I said so far

Base solo: 
E5 D5 C5 D5 

           G5 F#5 C5 D5 

           E5 D5 C5 C5 2x

           E5


Refr?o final: 
: G5 : G5 : C5 : D5 :

              : E5 : G5 : C5 : D5 :

              : G5 : G5 : C5 : D5 :

              : E5 : G5 : C5 : D5 :

Final: 
E:----------------------------:
B:----------------------------:
G:----------------------------:
D:---------5h7p5h7p5h7p5h7--2-:
A:-----5h7------------------2-:
E:-5h7----------------------0-:
Show more