Intro: 
E | ------------------------- | 
B | ------------------------- | 
G | ------------------------- | 
D | ------3-2---------3-2-3-- | 
A | ------------------------- | 
E | 3-3-3-----3-3-3-3-------- | 
 
          C5                      A5 
Ei menino branco o que ? que voc? faz aqui 
          D5                        E5 
Subindo o morro pra tentar se divertir 
                     F5 
Mas j? disse que n?o tem 
                  G5 
E voc? ainda quer mais 
                                         

                              C5  F5     
Por que voc? n?o me deixa em paz?
                              C5  F5     
Por que voc? n?o me deixa em paz?

E | ------------------------- | 
B | ------------------------- | 
G | ------------------------- | 
D | ------3-2---------3-2-3-- | 
A | ------------------------- | 
E | 3-3-3-----3-3-3-3-------- | 
  Desses vinte anos 
   C5                A5            
nenhum foi feito pra mim 
                         D5              E5 
E agora voc? quer que eu fique igual a voc? 
                      F5                     G5 
? mesmo. Como vou crescer se nada cresce por aqui? 
                           C5    F5 
Quem vai tomar conta dos doentes? 
                           C5     F5
E quando tem chacina de adolescentes                            
                   C5    F5
Como ? que voc? se sente? 
                   C5    F5
Como ? que voc? se sente?

Solo:
E | ----------- | ------------------ | ---------- | 
B | ----------- | ------------------ | ---------- | 
G | -(b9)(b9)(b9)(b9)(b9) | -9h10-10-10-10s12- | -12-12---- | 
D | ----------- | ------------------ | ---------- | 3x
A | ----------- | ------------------ | ---------- | 
E | ----------- | ------------------ | ---------- | 

E | ----------- | ----------------------------- | 
B | ----------- | ----------------------------- | 
G | -(b9)(b9)(b9)(b9)(b9) | -12-12-12-12-10-10-10-10s\--- | 
D | ----------- | ----------------------------- | 3x
A | ----------- | ----------------------------- | 
E | ----------- | ----------------------------- | 
 
D5    C#5    B5      A5  G5             A5        
   Em vez de luz tem tiroteio no fim do t?nel, 
D5 C#5          B5        A5 
Oh, sempre mais do mesmo 
G5                    A5 
N?o era isso que voc? queria ouvir? 

E | ------------------------- | 
B | ------------------------- | 
G | ------------------------- | 
D | ------3-2---------3-2-3-- | 
A | ------------------------- | 
E | 3-3-3-----3-3-3-3-------- |                                         
  Bondade sua me explicar 
C5                   A5
  com tanta determina??o 
                     D5                     E5 
Exatamente o que eu sinto, como penso como sou 
                    F5                     G5 
Eu realmente n?o sabia que eu pensava assim 
             C5  F5                  C5 F5
E agora voc? quer um retrato do pa?s
                C5    F5   
Mas queimaram o filme   
C5              F5
Queimaram o filme


   C5    F5   A5        G5        
Enquanto isso na enfermaria 
 C5      F5        A5     G5   
Todos os doentes est?o cantando
C5           F5    A5 G5
Sucessos populares                                  
C5           F5    A5 G5
Sucessos populares 
C5           F5    A5 G5
Sucessos populares
C5           F5    A5 G5
Sucessos populares 
C5
Show more