Tabbed by Matthew Schilling

I can't really figure out the chorus I've never tabbed anything before
So I just play the same progression the whole song and it sounds good

Intro/Verse
-7---5---5---5---5---|
-(b9)--5---7---7---5---|
-(b9)--6---7---7---6---|
-(b9)--7---7---7---7---|
-7---7---5---5---7---|
-x---5---x---5---x---|

Main Riff
---------------------------------|
---------------------------------|
(b9)(b9)(b9)(b9)(b9)-----------------------|
-------------(b9)11-12-11-11-(b9)----|
---------------------------------|
---------------------------------|

---------------------------------|
---------------------------------|
(b9)(b9)(b9)(b9)(b9)-----------------------|
-------------(b9)11-12-11-(b9)-------|
---------------------------------|
---------------------------------|
Show more