Verse  (//// = slide)

--7----5----3-----7----5----3--|
--8----8----3/////8----8----3--|
--7----7----0-----7----7----0--|
--(b9)---7----2-----(b9)---7----2--|
------------3---------------3--|
-------------------------------|


Chorus

--3----3----3----0--|
--3----3----3----3--|
--0----0----0----2--|
--0----2----2----0--|
--2----3----3-------|
--3-----------------|
Show more