Regular tuning, no capo...

Intro
  F7M          C                    F7M
-----------------------------------------|
----1-------1-------1----------1----1--1-|
----2-------2-------0-------0--0h2--0--2-|
--3----0h3------0h2----0h2---------------|
-----------------------------------------|
-----------------------------------------|

C   G  Am              C          G4     G
--------------------------------------3------3-|
------------1--1--1----1-------------1------0--|
-0--0--2----2--0--2----0-------0---0------0----|
-2--0--2---------------2--0h2----0------0------|
-3--2--0---------------------------------------|
-----------------------------------------------|

Chorus
   F     C    G
---0-----0----0------------------------------|
---0-----0----0------------------------------|
---2-----(b9)---4------------------------------|
---3----10----5------------------------------|
---3----10----5------------------------------|
---------------------------------------------|
Strum accordingly.

Transcribed by Tobias Hurwitz.
Show more