• Song:

    Il Etait Temps

  • Artist:

    Virginie Pouchain

Tabbed by: Kengus


Standard tuning
Capo on third fret!

INTRO
Am                       Am7/G                 Am6/F#                F7M
e|-----0----------0----------0----------0----------0----------0------(0)-|
B|-------1----------1----------1----------1----------1----------1----(1)-|
G|---------2----2-----2----------2----2-----2----------2----2-----2--(2)-|
D|---2---------2-----------2---------2-----------2---------2---------(2)-|
A|-0---------0-----------------------------------------------------------|
E|-----------------------3---------3-----------2---------2------------1--|

VERSE
   Am                    Am7/G                 Am6/F#                F7M
e|-----0----------0----------0----------0----------0----------0----------|
B|-------1----------1----------1----------1----------1----------1--------|
G|---------2----2-----2----------2----2-----2----------2----2-----2------|
D|---2---------2-----------2---------2-----------2---------2-----------2-|
A|-0---------0-----------------------------------------------------------|
E|-----------------------3---------3-----------2---------2-----------1---|
                 Am                    AmM7/G#               Am7/G
e|-0----------0------0----------0----------0----------0----------0-------|
B|---1-----------------1----------1----------1----------1----------1-----|
G|-----2----2------------2----2-----2----------2----2-----2----------2---|
D|---------2-------2---------2-----------2---------2-----------2---------|
A|---------------0---------0---------------------------------------------|
E|-------1-----------------------------4---------4-----------3-----------|
               A7        A74*  A7omit3  Dm7                  C7M
e|------0----------0------------0-------0------0h1--------0h1------------|
B|--------1----------2--------3-------5------1-----1----1-----1-----0----|
G|----2-----2----------0----0-------0------------------2--------------0--|
D|---2-----------2--------3-------5--------0---------0------------2-----2|
A|-------------0------------------------------------------------3--------|
E|-3---------------------------------------------------------------------|
                Dm7                      G
e|------------------0h1---------1h3p1--------------3---------------------|
B|----------------1-----1-----1-------1------0---------------------------|
G|-----0-----0--------------2------------------0-------------------------|
D|---2---0h2----0---------0----------------0-----0-----------------------|
A|-3---------------------------------------------------------------------|
E|---------------------------------------3-------------------------------|

VERSE1
Am     Am7/G               Am6/F#      F7M
Devenir,     comme seule raison de r?sister
Am   AmM7/G#          Am7/G         A7   A74*  A7omit3
Tenir,       ?lever le ton pour exister
Dm7                 C7M
    ?a se dit ?a se chante facilement
Dm7                           G
    Mais mon refrain aujourd'hui c'est

CHORUS (strum the chords)
         F7M  G               Am                 Asus2 Am
Il ?tait temps,    qu'enfin le ciel se rappelle de moi
         F7M  G            C7M*               F7M
Il ?tait temps,    enfin une tr?ve ma chance a moi
                          E7
Il ?tait temps, il ?tait temps

VERSE2
Am    Am7/G         Am6/F#               F7M
Courir     apr?s l'id?al ?a vaut le coup
Am     AmM7/G#              Am7/G                      A7 A74* A7omit3
Souffrir,      ?a fait moins mal quand c'est un r?ve au bout
Dm7                 C7M
    ?a se dit ?a se chante l?g?rement
Dm7                          G
    Mais mon refrain aujourd'hui c'est

CHORUS (strum the chords)
         F7M  G               Am                 Asus2 Am
Il ?tait temps,    qu'enfin le ciel se rappelle de moi
         F7M  G            C7M*               F7M     CHORUS:
Il ?tait temps,    enfin une tr?ve ma chance a moi          F7M = 133210
                          E7                                    G = 320033
Il ?tait temps, il ?tait temps                                 Am = x02210
                                                            Asus2 = x02200
                                                           C7M* = x32003
                                                               E7 = 020100
BRIDGE                                                        
   Csus2                  F7M                  Csus2
e|-----3-------------0h3------0----------------------3-------------0h3---|
B|-------3---------3------------1-------1--------------3---------3-------|
G|---0-----0-----0----------2-----2---2---0h2-0----0-----0-----0---------|
D|-------------0----------3---------3------------------------0-----------|
A|-3---------3-----------------------------------3---------3-------------|
E|-----------------------------------------------------------------------|
   F7M   E7
e|-------0------0--------------------------------------------------------|
B|-----1-------0---------------------------------------------------------|
G|---2--------1----------------------------------------------------------|
D|-3---------0-----------------------------------------------------------|
A|----------2------------------------------------------------------------|
E|---------0-------------------------------------------------------------|

BRIDGE with lyrics
Csus2      F7M
       J'y croyais plus
    Csus2                           F7M             E7
J'y croyais plus d'ailleurs j'ai du mal a le croire encore

CHORUS (strum the chords)
         F7M  G               Am                 Asus2 Am
Il ?tait temps,    qu'enfin le ciel se rappelle de moi
         F7M  G            C7M*            F7M
Il ?tait temps,    enfin une tr?ve ma chance a moi
         F7M      G
Il ?tait temps pourvu que ?a reste
   C7M*           F7M
Et si ?a ne dure pas
                                 E7
Je serais heureuse de dire aux enfants
               Dm                    E7
Que j'y ai touch? une fois dans mon temps
         F7M
Il ?tait temps...
Show more