• Song:

    Frank And Jasse James

  • Artist:

    Warren Zevon

Verse:
G|--------------------------------------------------|
D|-----------0-0-0-0-0-0-------------0-0------------|
A|--3-0-1-0-------------3-3-3-3---------0-0-1-1-3-3-|
E|-1-------3-----------------1-1--1-1---------------|

Chorus:
G|---------------------------------------------------------------------|
D|----------------------------------------3-------------------0-3------|
A|--1--3---5-3-1-1-3-5-3-1-1-3-5-3-1-0-1-3-5-3-1--1-3-5-3-1-0----5-3-5-|
E|-1-1--1-----------------------------1--------------------------------|

Bridge:
G|-----------------------------------------------------------------------|
D|------------------------------------------1-----3-----1-11-3--1-1-1--3-|
A|------1-----3-----1-11-3---1-1-1---3-1-1-1-1-1-1-1-1-1------31-1-1-13--|
E|-1-1-1-1-1-1-1-1-1------3-1-1-1-1-3------------------------------------|

G|--------------------|--------|
D|---------------0----|--3---3-|
A|-0-1-3-1-3-5-3---3--|-5-5-3--|
E|--------------1---1-|--------|
Show more