• Song:

    The Trooper (children Of Bodom Cover)

  • Artist:

    Washburncodee

basically the same as the maiden version except in Db and alot faster



tuning:standard


Intro/outro:x4
G|--------------------------------------------------|
D|--11-11-9---------9-9-7--------7-7-6--------------|
A|----------11------------9---------------7---------|
E|-------------------------------------7-----7-9----|


verse A:x2
G|--------------------------------------------------------------------------------|
D|--------------------------------------------------------------------------------|
A|----------------7-------------------7-------------------7-------------------7---|
E|-9999999999--7-----7-9999999999--7-----7-5555555555--7-----7-9999999999--7-----7|


"you take my life...." part
G|--------------------------------------------------------------------------|
D|--------------------------------------------------------------------------|
A|-------7---------------7--------------7--------------7--------------7-----|
E|----7-----7-9-------7-----7-9------7-----7-5------7-----7-9------7-----7-9|


chorus:
G|-------------------------------------------------------------|
D|-------------------------------------------------------------|
A|-----------------------------------------------------7-------|
E|-777777777777-999999999999-777777777777-99999999--7-----7-9--|


verse B:
G|----------------------------------------------------------------------------------------|
D|----------------------------------------------------------------------------------------|
A|---------------7------------------7-------------------5------------------7--------------|
E|--99999999--7-----7-999999999--7-----7-5555555555--5-----5-777777777--7-----7-9999999999|


guitar solo A:
G|-------------------------------------|
D|-------------------------------7----9|
A|-------------------------------------|
E|-99999999-777777777-444444-5555-7777-|


solo B: (starts right after "kick some ...")
G|-------------------------------7----9|
D|-------------------------------------|
A|-99999999-777777777-444444-5555-7777-|
E|-------------------------------------|


song order:
intro   x4
verse A x2
"you take my life" x1
verse A x1
chorus  x1
verse B x2
verse A x2
chorus  x1
solo A  x4
solo B  x4
verse B x2
verse A x2
chorus  x1
outro   x4
Show more