-----------------------------------------------------------------------------
                         Beaten Too A Pulp - Washya
-----------------------------------------------------------------------------
Tuning: Standard (EBGDAE)
Intro/Chorus
E|--------------------------------------------|
B|--------------------------------------------|
G|--------------------------------------------|
D|--------------------------------------------|
A|-5/6/7--3/4/5--5/6/7--3/4/5--9\8\7--7\6\5-2-|
E|-3/4/5--1/2/3--3/4/5--1/2/3--7\6\5--5\4\3-0-|x3

Part 2
E|-----------------------------------------|
B|-----------------------------------------|
G|----9---7--------------------------------|
D|-/9---9---9-8-7---7----------------------|
A|----------------9---9-8-7---7-5----------|
E|--------------------------9-----7-6-5-3~-|

Verses
E|------------------------------------------------------|
B|------------------------------------------------------|
G|------------------------------------------------------|
D|------------------------------------------------------|
A|-22-2222-222-2-22--11-1111-111-1-11--33-3333-333-3-33-|
E|-00-0000-000-0-00--00-0000-000-0-00--00-0000-000-0-00-|
PM ** **** *** * **  ** **** *** * **  ** **** *** * ** 

Lead
E|-------------16p15----------------17p15p14----------------17p15p14---16~-|
B|-13b~~~~~-15-------15h17p15h17p15----------15h17p15h17p15---------15-----|
G|-------------------------------------------------------------------------|
D|-------------------------------------------------------------------------|
A|-------------------------------------------------------------------------|
E|-------------------------------------------------------------------------|

E|-/18p16p15-------15h17p15----15p14----------------------16p15----------|
B|-----------17p16----------17-------17p15p14h15p14h15p14-------17p15h17-|
G|-----------------------------------------------------------------------|
D|-----------------------------------------------------------------------|
A|-----------------------------------------------------------------------|
E|-----------------------------------------------------------------------|

E|-------19----------19----------19p18-------19----19----20b~~----22b~~-|
B|-16h17----17p16h17----17p16h17-------19p18----18----18-------18-22b~~-|
G|----------------------------------------------------------------------|
D|----------------------------------------------------------------------|
A|----------------------------------------------------------------------|
E|----------------------------------------------------------------------|
Show more