-----------------------------------------------------------------------------
                       Demonade - Washya
-----------------------------------------------------------------------------
Tuning: E Flat (DAFCGD)
Intro
D|-----------------------------------|
A|-------------<5>-----<7>-----------|
F|-<5>-----<5>-------------<7>-------|
C|-----<5>---------<7>---------3/4/5-|
G|-----------------------------3/4/5-|
D|-----------------------------1/2/3-|
PM                             ..... 

Main Riff/Chorus  (Very Cool Lick)
D|--------------------------------------------|
A|--------------------------------------------|
F|--------------------------------------------|
C|------10/9-----7\5-----8\7-5/7-----101010/9-|
G|-2-22-8-/7-7/9-5\3-3/5-6\5-3/5-5/7-8-8-8/-7-|
D|-0-00------5/7-----1/3---------3/5----------|
PM   .. 

Verses (Heavy Palm Muting)
D|---------------------------------------|
A|---------------------------------------|
F|---------------------------------------|
C|---------------------------------------|
G|-2-2222-22-2--2-2222-22-2--2-2222-22-2-|
D|-0-0000-00-0--0-0000-00-0--0-0000-00-0-|
PM . .... .. .  . .... .. .  . .... .. .
Show more