-----------------------------------------------------------------------------
                 Dual Of Fate - Washya
-----------------------------------------------------------------------------
Tuning: Drop B (BF#BEG#C#)
Intro
B|---------------------------------------|
F#|--------------------------------------|
B|---------------------------------------|
E|--------------------------3------------|
G#|-0-0--0-0-0--0h3p1p0h1h3-1-0-0-0--0-0-|
C#|-0-0--0-0-0--0h3p1p0h1h3---0-0-0--0-0-|
PM              ...........          

Verses
B|-------------------------|
F#|------------------------|
B|-------------------------|
E|-------------------------|
G#|-3-----3-------0--0-0-0-|
C#|---5-7---3-5-1-0--0-0-0-|
PM  . . . . . . .      

Chorus
B|-----------------------------------------------------------------------|
F#|----------------------------------------------------------------------|
B|-----------------------------------------------------------------------|
E|--------------------333-555--------------------------------------------|
G#|-33333333-11111111-111-333-666-3333-000-0-2-0-3-0-3-5-6-5-0-3-5-0-1-0-|
C#|-33333333-11111111---------666-3333-000-0-2-0-3-0-3-5-6-5-0-3-5-0-1-0-|
PM                                                   . . . . . . . . . .
Show more