-----------------------------------------------------------------------------
                   More, More, More - Washya
-----------------------------------------------------------------------------
Tuning: Standard (ebgDAE)
Intro  
e|-----------2-----------|--------|
b|---------2---2---------|--------|
g|-------3-------3---3---|------4-|
D|-----4-----------4-----|----4-4-|
A|---4-------------------|--4---2-|
E|-2-------------------x3|2-----2-|

Verses
e|-------------|
b|-------------|
g|-44-5---33---|
D|-44-5-5-33-2-|
A|-22-3-5-11-2-|
E|-22-3-3-11-0-| (Chords produce *CRUNCHING* sound)
PM           . 

Chorus
e|-------------------|
b|-------------------|
g|-------------9-8-7-|
D|-------------9-8-7-|
A|-2-2222-2-22-7-6-5-|
E|-0-0000-0-00-7-6-5-| (these chords produce *CRUNCHING* sound)
PM . .... . ..
Show more