animal (f*ck like a beast)
w.a.s.p.

Tune down ? step (one fret)

P.M- palm mute

Intro/verse
          E            C   E          A   E         G    F# G  A   G  F#
-------|---------------------------------------------------------------
-------|---------------------------------------------------------------
-------|--------------5--------------2---------------------------------
-5-4-2-|--------------5--------------2--------------5---------7--------
-5-4-2-|--------------3--------------0--------------5---4--5--7---5--4-
-3-2-0-|---0-0-0-0-0------0-0-0-0-0------0-0-0-0-0--3---2--3--5---3--2-
              P.M......      .........      .........

Pre-chorus
   E              C   E          A   A E   A E   A
-------------------------------------------------
-------------------------------------------------
----------------5--------------2-----------------
-2--------------5--------------2---2-----2-----2-
-2--------------3--------------0---0-2-2-0-2-2-0-
-0---0-0-0-0-0------0-0-0-0-0--------0-0---0-0---

Chorus
   E	       G   D   A
-----------------------------
-----------------------------
-----------------------7---2-
-------------------5---7---2-
-2--2--2--2--2--2--5---5---0-
-0--0--0--0--0--0--3---------

Dont know the solo-

Song Structure:
Intro- x2
Verse- x3
Pre-chorus- x1
Chorus- x4
Verse- x2
Pre-chorus- x1
Chorus- x4
Bridge- x1
During solo: chorus- x1
Chorus- x4


        __
      =/ /
     =/ /
    =/_/            
     |_           
     |_|          
     |_|  any questions or corrections   
     |_|   email me, valkeyrie3@hotmail.com -Crue
     |_|
     |_|
     |_|      
  / |_|
 / | |_|  _
   |_| (  
  |     / /
  | [===] | 
 /  [===]/|   
 |   ___/oo   
   |---| o )  
  ________/
Show more