From the album "Inside the Electric Circus"
Guitars tuned 1/2 step down

Intro Riff (listen for the right rhythm)
----------------------------------
-5-3---5-3---5-3---5-3---5-3---3--
-----4-----4-----4-----4-----4----
---------------------------------- 
----------------------------------
----------------------------------
|---          --PM--        ---|


--------------------------
--------------------------
--------5----------------- (Whole notes over lead)
-2------5------7------3---
-2------3------7------3---
-0-------------5------1---


---------3--------------3---------
-5---3-5---5~---5---3-5---5~------
---4--------------4---------------
---------------------------------- x3
----------------------------------
----------------------------------



--------------------------
--------------------------
--------5----------------- 
-2------5------7------3--- (whole notes)
-2------3------7------3---
-0-------------5------1---



(Then the final lead riff)

---------3---3-5^(6)5h3-------
-5---3-5---5------------5~~---
---4--------------------------
------------------------------ 
------------------------------
------------------------------


Now the vocals come in...


Rhythm          Lead
---------     ---------
---------     ---------
---------     ---------
----2----     ---------
----2----     ----7----
----0----     ----0----
"For so long now I'm racing on, in the wind"


---------
---------
----5----
----5----
----3----
---------
"On this road I'm moving on"


---------
---------
---------
----2----
----2----
----0----
"I feel the heat, the desert sun burning skin"

---------
---------
----5----
----5----
----3----
---------
"Never stopping, always on the run"


---------
---------
----7----
----7----
----5----
---------
"Ooh, forever all I want" 

---------
---------
---------
----2----
----2----
----0----
"Is you here by my side"

---------
---------
----7----
----7----
----5----
---------
"But I can't wait too..." 


---------
---------
---------
----2----
----2----
----0----
"...long, no"


---------
---------
----5----
----5----
----3----
---------
"Holding me is like..."


---------
---------
----7----
----7----
----5----
---------
"...taming the seven seas" 


Chorus
------------------------------
------------------------------
------------------5--4--5-----
----2-0-----------5--5--5-----
----2-0-----------3--3--3-----
----0-0-----------------------
"I'm one.."   "..all I Need.."


-----------------------------------
-----------------------------------
-----------------9-----------------
----7------------9-------------2---
----7------------7-------------2---
----5--------------------------0---
"To catch"   "my heart"    "riding"

Repeat Chorus riffs again


Back to Verse

Rhythm          Lead
---------     ---------
---------     ---------
---------     ---------
----2----     ---------
----2----     ----7----
----0----     ----0----
"Move too fast, no never hold me down"


---------
---------
----5----
----5----
----3----
---------
"Catch me if you really think you can"


---------
---------
---------
----2----
----2----
----0----
"Feel my touch, two lovers cry that sound"

---------
---------
----5----
----5----
----3----
---------
"Never ever knowing who I am"


---------
---------
----7----
----7----
----5----
---------
"Ooh, I want you closer baby"  

---------
---------
---------
----2----
----2----
----0----
"Don't you take too long"

---------
---------
----7----
----7----
----5----
---------
"Cause tomorrow I'll be..."  


---------
---------
---------
----2----
----2----
----0----
"...gone, yeah""


---------
---------
----5----
----5----
----3----
---------
"And holding me is like..."


---------
---------
----7----
----7----
----5----
---------
"...taming the seven seas" 


Chorus
------------------------------
------------------------------
------------------5--4--5-----
----2-0-----------5--5--5-----
----2-0-----------3--3--3-----
----0-0-----------------------
"I'm one.."   "..all I Need.."


-----------------------------------
-----------------------------------
-----------------9-----------------
----7------------9-------------2---
----7------------7-------------2---
----5--------------------------0---
"To catch"   "my heart"    "riding"

Repeat Chorus riffs again



Verse 3:
----------------------------------
----------------------------------
-7-------------------------------
-5-------------------------------
-----2-2-2-2-2-2-2-2-2-2-2-2-2-2--
-----0-0-0-0-0-0-0-0-0-0-0-0-0-0--
     . . . . . . . . . . . . . .
"Easy rider on the highway"



------------------------------------
------------------------------------
-7/9-9------------------------------
-7/9-9------------------------------
-5/7-7-2-2-2-2-2-2-2-2-2-2-2-2-2-2--
-------0-0-0-0-0-0-0-0-0-0-0-0-0-0--
       . . . . . . . . . . . . . . 
"Got the wind in my hair"


----------------------------------
----------------------------------
-7-------------------------------
-5-------------------------------
-----2-2-2-2-2-2-2-2-2-2-2-2-2-2--
-----0-0-0-0-0-0-0-0-0-0-0-0-0-0--
     . . . . . . . . . . . . . .
"Come on, you can touch me where I lay"


------------------------------------
------------------------------------
-7/9-9------------------------------
-7/9-9------------------------------
-5/7-7-2-2-2-2-2-2-2-2-2-2-2-2-2-2--
-------0-0-0-0-0-0-0-0-0-0-0-0-0-0--
       . . . . . . . . . . . . . . 
"Running free without a care"


--SOLO--
(Backing only, sorry)


Backing:
------------------------------------
------------------------------------
-9----------------------------------
-7---9------------------------------
-----7--2-2-2-2-2-2-2-2-2-2-2-2-2-2-
--------0-0-0-0-0-0-0-0-0-0-0-0-0-0-
        . . . . . . . . . . . . . .   
                                       x2
                                      /
-------------------------------------
-------------------------------------
-7---9-------------------------------
-7---9-------------------------------
-5---7---2-2-2-2-2-2-2-2-2-2-2-2-2-2-
---------0-0-0-0-0-0-0-0-0-0-0-0-0-0-
         . . . . . . . . . . . . . . 


------------
------------
-----5------
-----5------
-----3------
------------


------------------------------------
------------------------------------
-9----------------------------------
-7---9------------------------------
-----7--2-2-2-2-2-2-2-2-2-2-2-2-2-2-
--------0-0-0-0-0-0-0-0-0-0-0-0-0-0-
        . . . . . . . . . . . . . .   
                                       x2
                                      /
-------------------------------------
-------------------------------------
-7---9-------------------------------
-7---9-------------------------------
-5---7---2-2-2-2-2-2-2-2-2-2-2-2-2-2-
---------0-0-0-0-0-0-0-0-0-0-0-0-0-0-
         . . . . . . . . . . . . . . 


---------------
---------------
--5----7----9--
--5----7----9--  (Backing to riff below)
--3----5----7--
---------------

-----------------------------
-----------------------------
-----------------------------
---------7-------------------
-10-9-10---10-9-10-9-7----7--
-----------------------10----


---------------
---------------
--5----7----9--
--5----7----9--
--3----5----7--
---------------

-----------------------------
-----------------------------
-----------------------------
---------7----7-9~-----------
-10-9-10---10----------------
-----------------------------


---------------
---------------
--5----7----9--
--5----7----9--    All whole notes played  
--3----5----7--    as backing for
---------------                   |  
                                  |
                                  |                                 
                                  v

-12h15p12h15-------------------------------------
-------------12h15p12h15-------------------------
-------------------------12h14p12h14-------------
-------------------------------------12h14p12h14-
-------------------------------------------------
-------------------------------------------------
(Use fast alternative picking)



--------------
--------------
--5-------7---
--5-------7---     
--3-------5---  
--------------                 
                                 

-12h15p12h15-------------------------------------
-------------12h15p12h15-------------------------
-------------------------12h14p12h14-------------
-------------------------------------12h14p12h14-
-------------------------------------------------
-------------------------------------------------


Chorus
------------------------------
------------------------------
------------------5--4--5-----
----2-0-----------5--5--5-----
----2-0-----------3--3--3-----
----0-0-----------------------
"I'm one.."   "..all I Need.."


-----------------------------------
-----------------------------------
-----------------9-----------------
----7------------9-------------2---
----7------------7-------------2---
----5--------------------------0---
"To catch"   "my heart"    "riding"

Repeat Chorus twice

And then it slowly fades out
Show more