• Song:

    Tales From The Lawnside

  • Artist:

    Waterdown

Band: Waterdown
Song: Tales From The Lawnside
Tabbed By: Stu Berry

This is missing part of the verse but this is the only tab for this song on the net so consider yourselves lucky that you have this

Intro

Guitar I
e:-------------------------------------------------------------------
B:-------------------------------------------------------------------
G:--------------------------------10-------------10-9----------------
D:-----10-------------10----------10-------------10-9----------------
A:-----10-------------10-----------8--------------8-7----------------
E:------8--------------8---------------------------------------------

Guitar II
e:-------------------------------------------------------------------
B:-------------------------------------------------------------------
G:-------------------------------------------------------------------
D:---------10--------------------------------------------------------
A:---------10----------------------8------------8-8-7----------------
E:----------8----------------8-10--------8-10------------------------

Guitar I picks down and Guitar II picks up

Verse

Guitar I
e:--------------------------
B:--------------------------
G:--------------------------
D:--10----5----7----3-------
A:--10-x8-5-x8-7-x8-3-x8----
E:---8----3----5----1-------
 . . . . . . . . . . . .|pm

Guitar II
e:--------------------------------
B:--------------------------------
G:--9-10---10-9---9-9-10-9-7-9-9--
D:--9-10---10-9---9-9-10-9-7-9-9--
A:--7--8----8-7---7-7--8-7-5-7-7--
E:--------------------------------

Chorus
                                       
Guitar I                               x4(miss out 355xxx 4th time)
e:-----------------------------------------------
B:-----------------------------------------------
G:-----------------------------------------------
D:--3-3-3-3-3-3-3-3-5-5-5-5-5-5-5-5--------------
A:--3-3-3-3-3-3-3-3-5-5-5-5-5-5-5-5--------------
E:--1-1-1-1-1-1-1-1-3-3-3-3-3-3-3-3--------------

Solo 
                                                                 
Guitar I (double tracked an octave higher)                         x2
e:-------------------------------------------------------------------
B:-------------------------------------------------------------------
G:-------------------------------------------------------------------
D:------7777-99-9b11r9-7-----7777-5555-3333-----7777-99-9b11r9-7-----
A:-------------------------------------------------------------------
E:-------------------------------------------------------------------

Guitar II
e:-------------------------------------------------------------------
B:-------------------------------------------------------------------
G:-------------------------------------------------------------------
D:--777------------------555----------------333------------------2-3-
A:--777------------------555----------------333------------------2-3-
E:--555------------------333----------------111------------------0-1-
Show more