• Song:

    California

  • Artist:

    Wave

  • Album:

    Nothing As It Seems

WAVE - CALIFORNIA
TABBED BY John Doe
STANDARD TUNING

IF YOU WANT THIS SONG TO SOUND EXACTLY LIKE THE SONG THEN U HAVE TO PUT A CAPPO 
ON THE THIRD FRET. BUT I THINK THAT IT SOUNDS REALLY GOOD IN STANDARD TUNING.
ENJOY!!


INTRO-PLAYED ON ACOUSTIC
   
 |---repeat until verse--|
e|---3---3---2---3---0---|
B|---3---3---3---3---3---|
G|---0---0---2---2---0---|
D|---0---0---0---0---0---|
A|---3---X---0---0---2---|
E|---X---3---X---X---X---|

 |-guitar 2 with tremolo-|
e|---8---7---3-----------|
B|---8---8---3-----------|


VERSE-ELECTRIC AND ACOUSTIC

 |-------repeat 2x-------|---end of verse----|
e|---3---3---2---3---0---|----------X-----2--|
B|---3---3---3---3---3---|---2---2--3--0--3--|
G|---0---0---2---2---0---|----------0-----2--|
D|---0---0---0---0---0---|----------2-----0--|
A|---3---X---0---0---2---|-3---2----0-----X--|
E|---X---3---X---X---X---|----------X-----X--|

CHORUS-ELECTRIC AND ACOUSTIC

 |-----repeat 3x-----|
e|---3---3---0---2---|
B|---3---3---3---3---|
G|---0---0---0---2---|
D|---0---0---0---0---|
A|---3---X---2---X---|
E|---X---3---X---X---|

VERSE 2 SAME AS FIRST VERSE

CHORUS 2 SAME AS FIRST CHORUS

INTERLUDE-ELECTRIC AND ACOUSTIC
 
 |---repeat 1x---|
e|---O---0---0---|
B|---3---3---3---|
G|---0---2---0---|
D|---2---0---0---|
A|---2---X---3---|
E|---0---X---X---|

VERSE 3-ACOUSTIC


 |-------repeat 2x-------|------------end of verse---------|
e|---3---3---2---3---0---|----------X-----2--|----------X--|
B|---3---3---3---3---3---|---2---2--3--0--3--|---2---2--3--|
G|---0---0---2---2---0---|----------0-----2--|----------0--|
D|---0---0---0---0---0---|----------2-----0--|----------2--|
A|---3---X---0---0---2---|-3---2----0-----X--|-3---2----0--|
E|---X---3---X---X---X---|----------X-----X--|----------X--|

CHORUS 3 SAME AS FIRST AND FADE OUT AT THE END
Show more