• Song:

    With Veins Afire

  • Artist:

    Waylander

  • Album:

    Reawakening Pride Once ...

Waylander
'With Veins Afire'

from the album 'Reawakening Pride Once Lost' (Century Media)

tune to D

h: hammer on
p: pull off
*: palm muting

for corrections and so on, mail Vortigern, evil lord of pingpong: 
guy@freemail.hammerfall.net

Riff 1
|-------------------------------------------|
|-------------------------------------------|
|-------------------------------------------|
|-------------------------------------------|
|-0-2-3-5-2---0-2-3-5-5-555-7-5-3-2---------|
|-----------3-------------------------------|


riff 2
|-----------------------------|
|-----------------------------|
|-----------------------------|
|-----------------------------|
|-0-00h2p0-0-00h2p0-0-00h2p0--|
|-----------------------------|

ending 1
|--------------|
|--------------|
|--------------|
|-2-3-2-0------|
|---------3-2--|
|--------------|

ending 2
|----------|
|----------|
|----------|
|----------|
|---2-3-2--|
|-3--------|

riff 3
|------------------------|
|------------------------|
|------------------------|
|------------------------|
|-7-8-5-4--5-4-7--8-5-4--|
|-5-6-3-2--3-2-5--6-3-2--|

riff 6
same as riff 5, but palm muting throughout

riff 7
again same as riff 5, but played like this:
|------------------|
|------------------|
|------------------|
|------------------|
|-7---7------------|
|-55555—and so on--|
   ***

riff 8
|----------------------------|
|----------------------------|
|----------------------------|
|--------------5555/4-2------|
|-2-2222-3-2-2-3333/2-0-5-4--|
|-0-0000-1-0-0----------3-2--|

riff 9
|------------------------------------------------|
|------------------------------------------------|
|------------------------------------------------|
|------------------------------------------------|
|-7-----7-----------3-----5-------2-3-3-2h3p2-0--|
|-5-555-5-555-1-111-1-111-3-333-3----------------|
    ***   ***   ***   ***   ***

riff 10
|---------------|
|---------------|
|---------------|
|---------------|
|-5-8-3-5-8-10--|
|-3-6-1-3-6-8---|

riff 11 (not sure about this one)
|-------------------------------------|
|-------------------------------------|
|-------------------------------------|
|-------------------------------------|
|-----0-2-3-3-2h3p2—0h2-22p0-0-0h2-22-|
|-4-0---------------------------------|

|-------------------------------------|
|-------------------------------------|
|-------------------------------------|
|-------------------------------------|
|-----0-2-3-3-2h3p2-0h2-22p0----------|
|-4-0------------------------2-2h4-4-4|

repeat riff 8

riff 12
|-------------------------------|
|-------------------------------|
|-------------------------------|
|-------0-2-0-------------------|
|-0-2-3-------3-2-0-2-3-2--232--|
|------------------------3------|

|---------------------------------|
|---------------------------------|
|---------------------------------|
|-------0-2-0-----------0-2-3-2---|
|-0-2-3-------3-2-0-2-3-----------|
|---------------------------------|

That's about it. The repeats of the riffs themselves is something I leave 
to you. Have fun!
Show more