• Song:

    Great Escape

  • Artist:

    We Are Scientists

Artist: We are scientists
Song: Great escape
It was a complete shock when i couldn't find this tab ANYWHERE, so the rest is
history.....

Main Riff:

G|--------------------------------------------------------------------------|
D|--------------------------------------------------------------------------|
A|-9-9---77----9-9--77------------9-9--77--9-9------------------------------|
E|----------------------9--9----------------------9-9-9-9-------------------|

Chorus Part 1:

G|------------------------------------|
D|------------------------------------|
A|------------------------------------|                           X2
E|-55555555-9-5-4-22222222-14 12 9--|

Chorus Part 2:

G|------------------------------------------------------------|
D|------------------------------------------------------------|
A|------------------------------------------------------------|
E|-77777777-7777777-9----1010101010101010---1010101010101010--|

Bridge:

G|----------------------------------------------------------------------------|
D|------4------2-------4--------2-----------------4--------2-------4----------|  
A|- --------------------------------------------------------------------------|
E|--2-------0-------2-------0----------99-----2-------0-------2---------9999--|

G|--------------------------------------|
D|--------------------------------------|                        
A|- ------------------------------------!                 X2
E|-----10101010101010 77777777777-------|

G|----------------------------------------------------------------|
D|----------------------------------------------------------------|                        
A|- -------------------------------------------(8) last time------!                 X2
E|-----55555555555555 77777777777---------------------------------|
Order:
Main Riff
Chorus One
Chorus Two
Main Riff
Chorus One 
Chorus Two
Bridge One
Bridge Two
Bridge three
Main Riff
Chorus One
Chorus two
Show more