hey! this is a tab of We Are The Ocean's 'Save Me! Said The Saviour'!
 i tabbed this by ear and realised there was no tab for it on ultimate guitar
 so thought i'd put it on for you guys and see what you thought as this is a great song to
play. if you have any suggestions on
improvements just let me know. for most of the tab i didn't put the strumming patterns or
the amount of notes so you will have to improvise.this band and song are amazing and 
your eyes peeled for
there new album out in november called 'Cutting Our Teeth'. hope this helps and enjoy!

This moment will last a lifetime...

E-------------|
B--10-9----12-|
G------9-11---|
D-4-----------|
A-4-----------|
D-4-----------|

you always find the light so well...

E-----------------|
B--14-12----------|
G-------14-13-----|
D-2----------14---|
A-2---------------|
D-2---------------|

well i guess this...

E---------------------|
B--9-7-9-10-9-7-9-7-5-|
G---------------------|
D-4-------------------|
A-4-------------------|
D-4-------------------|

E---------------------|
B--9-7-9-10-9-7-9-7-5-|
G---------------------|
D-2-------------------|
A-2-------------------|
D-2-------------------|


And we'll sail away from here...

E------------|
B------------|
G------------|
D-4-0-2------|
A-4-0-2------|
D-4-0-2------|

shout it out let the angels know that we are calling...

E------------|
B------------|
G------------|
D-4-5-7------|
A-4-5-7------|
D-4-5-7------|

and dont be surprised if you feel so alive...

E----------------------------------------------------|
B----------------------------------------------------|
G----------------------------------------------------|
D-4-5-0-7-4-5-7----4/0-0-----------------------------|
A-4-5-0-7-4-5-7----4/0-0-----------------------------|
D-4-5-0-7-4-5-7----4/0-0 (4 for back to the start, 0-| for breakdown)


break down

E----------------|
B----------------|
G----------------|
D-003050030205555
A-003050030205555
D-003050030205555

E----------------|
B----------------|
G----------------|
D-00305000-------|
A-00305000-------|
D-00305000-------|

you are my shooting star that glides

E--------------------|
B--------------------|
G--------------------|
D-0-8-7-3-5----------|
A-0-8-7-3-5----------|
D-0-8-7-3-5----------|

across the skys...

E----------------|
B----------------|
G----------------|
D-5-7-8-10-4-5-0-|
A-5-7-8-10-4-5-0-|
D-5-7-8-10-4-5-0-|

shout it out...

E------------|
B------------|
G------------|
D-4-5-7------|
A-4-5-7------|
D-4-5-7------|

E-----------------|
B-----------------|
G-----------------|
D-4-5-0-7-4-5-7-0-|
A-4-5-0-7-4-5-7-0-|
D-4-5-0-7-4-5-7-0-|

thanks =]
Show more