Band: Weakerthans 
Song: Diagnosis 


Intro 
The notes in brackets are played by both/either bass and 2nd guitar 

E--------------------------|-------------------------------------- 
B--------------------------|-------------------------------------- 
G--------------------------|x4------------------------------------ 
D---7----------------------|-------------------------------------- 
A---7----------------------|-------------------------------------- 
E---5--(754575457545-5557)-|---(75420)---------------------------- 



Verse 


E-------------------------------|--------------------------------- 
B-------------------------------|--------------------------------- 
G--9----------------------------|x2------------------------------- 
D--9---7---9---4---7------------|----4----7----------------------- 
A--7---7---9---4---7------------|----4----7----------------------- 
E--0---5---7---2---5--(5457545)-|----2----5----------------------- 



Chorus 
Guitar 1 __ __ 
|1 |2 
E---------------|-------|------------------------------------------ 
B---------------|-------|------------------------------------------ 
G---9-----------|-------|------------------------------------------ 
D---9----11---9-|--7----|--7---777777------------------------------ 
A---7----11---9-|--7----|--7---777777------------------------------ 
E--------9----7-|--5----|--5---555555--(54575420)------------------ 


Guitar 2 __ __ 
|1 |2 
E-------------------------------------------|--------|------------- 
B-------------------------------------------|--------|------------- 
G--13--11-14--13---13--11-14--13--11-13--14-|---9----|--999999----- 
D--x---x--x---x----x---x--x---x---x--x---x--|---x----|--xxxxxx----- 
A--11--9--12--11---11--9--12--11--9--11--12-|---7----|--777777----- 
E-------------------------------------------|--------|------------- 


Repeat Verse 

Repeat Chorus 


Bridge 


E---------------------------------------------------------------- 
B---------------------------------------------------------------- 
G--------------9------------------------------------------------- 
D--11--9---7---9---11---9---7-----7------------------------------ 
A--11--9---7---7---11---9---7-----7-(repeat last chord many times) 
E--9---7---5-------9----7---5-----5------------------------------ 


Outro 


E------------------------|--------------------------|-------------- 
B------------------------|--------------------------|-------------- 
G------------------------|--------------------------|x2------------ 
D-7---7-7----------------|---7-7-7-7----------------|-------------- 
A-7---7-7----------------|---7-7-7-7----------------|-------------- 
E-5---5-5--(54575457545)-|---5-5-5-5-(54575457545)--|-------------- 


E---------------------------------------------------------------- 
B---------------------------------------------------------------- 
G---------------------------------------------------------------- 
D---7-7-7-7----------2------------------------------------------- 
A---7-7-7-7----------2------------------------------------------- 
E---5-5-5-5--(54575420)------------------------------------------ 


prnstr4lf13
Show more