Band: Weakerthans 
Song: Everything Must Go 


Intro Riff 
(Guitar 2) 

E--------------------------|------------------------------------ 
B-----9/10---------9-10----|------------------------------------ 
G---9------11-9--9------7--|------------------------------------ 
D--------------------------|x2---------------------------------- 
A--------------------------|------------------------------------ 
E--------------------------|------------------------------------ 


Verse 
(Guitar 1) 
4th time end on: 
Guitar 1 Guitar 2 
E-----------------|--------------------------|---------------10-- 
B-----------------|--------------------------|---2-0-0/2-0---10-- 
G----(2)-(4)-(6)--|x2 alone)-----------------|-2-----------2----- 
D--2--4---6---7---|x2 with band)------6--4---|------------------- 
A--4--5---7---9---|-------------------7--5---|------------------- 
E-----------------|--------------------------|------------------- 


Chorus 
Guitar 1 Guitar 2 
(at the end of each Guitar 1 phrase plays:) 

4th time plays: 
E-------------|---------------------------|-------0--------4--2-- 
B-------------|------9/10--------9-10-----|------2-2---0--5--5--- 
G-------------|----9------11-9-9------7---|-----2---2-2---------- 
D--11---9--7--|x4-------------------------|x3--2-----2----------- 
A--12--11--9--|---------------------------|---0------------------ 
E-------------|---------------------------|---------------------- 


Bridge 
Guitar 1 
(this is played with a piano and i think something else too) 

Guitar 2 ends on: 
E--------------------|------------------------------------------ 
B--------------------|--------0--------------------------------- 
G---------------(4)--|------2----------------------------------- 
D-2-4--6-7--2-4--6---|x2--4------------------------------------- 
A-4-5--7-9--4-5--7---|------------------------------------------ 
E--------------------|------------------------------------------ 


Repeat Verse 

Repeat Chorus twice 


Ends with drums. 

prnstr4lf13
Show more