A great Christmas number but no bass tab for it! So here goes!


|---------------------------------|
|---------------------------------|
|-4-4-4-4-4-4-4-4-4-4-4-4--4--4---|
|-------------------------8--8----|


|---------------------------------|
|---------------------------------|
|-1-1-1-1-1-1-1-1-1-1-1-1-1-1-3-4-|
|---------------------------------|


|---------------------------------|
|-1-1-1-1-1-1-1-1-1-1-1-1-3-4-3-4-|
|---------------------------------|
|---------------------------------|

|---------------------------------|
|---------------------------------|
|-----------------------6---------|
|-4--4-4-4--4-4-4--6--8-----------|

And thats it! Just repeat over and over for the whole song!

As always, get in touch with any corrections!
Show more