• Song:

    Shakedown

  • Artist:

    Whitecross

  • Album:

    At Their Best

Intro/Chorus:
|-------------------------------------------------------------------------|
|-------------------------------------------------------------------------|
|--2------7-----------------2--------------5--5---------------------------|
|--2------5-7---------------2--------------3--3---------------------------|
|--0--0-----5--0---3-5-3----0--0-0-0-0-0----------------------------------|
|-------------------------------------------------------------------------|
      .                        . . . . .
|---------------------------------------------------------------------------|
|---------------------------------------------------------------------------|
|--2------7-----------------2-----------------------------------------------|
|--2------5-7---------------2-----------------------------------------------|
|--0--0-----5--0---3-5-3----0--0-3-5-3--------------------------------------|
|--------------------------------------5-3~---------------------------------|
      .                        . . . . .
Verse:2x
|-------------------------------------------------------------------------|
|-------------------------------------------------------------------------|
|---2---------------------------------------------------------------------|
|---2---------------------------------------------------------------------|
|---0-------------0--3-5~---0-3-------------------------------------------|
|-------------------------------5-3--5-3-5--------------------------------|

PreChorus:
|--------------------------------------------------------------------------|
|--------------------------------------------------------------------------|
|--------------------------------------------------------------------------|
|----2-2--2--2----------------2-2--2---------------------------------------|
|----2-2--2--2---5--3-5-3-----2-2--2----5-3-5------------------------------|
|----0-0--0--0------------5---0-0--0-----------5---------------------------|


|-------------------------------------------------------------------------|
|-------------------------------------------------------------------------|
|-----------------------5-5---6-6---7-------------------------------------|
|--2-2--2---------------5-5---6-6---7-------------------------------------|
|--2-2--2----5-3-5------3-3---4-4---5-------------------------------------|
|--0-0--0-----------5-----------------------------------------------------|

Repeat Chorus
Repeat Verse
Repeat Chorus 2x

Bridge:
|---------------------------------------------------------------------------|
|---------------------------------------------------------------------------|
|---------------------------------------------------------------------------|
|-----------------------3-5-7-----------------------------------------------|
|---0-0--3-0-5-0-6-0--0-----------------------------------------------------|
|---------------------------------------------------------------------------|
    . .    .   .   .  .
Repeat 3x
(First open A string is not used after this point just listen to the song)

|--------------------------------------------------------------------------|
|--------------------------------------------------------------------------|
|--------------------------------------------------------------------------|
|------------------------7-5-----------------------------------------------|
|--0--3-0-5-0-6-0-0--------------------------------------------------------|
|--------------------------------------------------------------------------|
   .    .   .   . .
|---------------------------------------------------------------------------|
|---------------------------------------------------------------------------|
|---------------------------------------------------------------------------|
|---------------------3-4-5-------------------------------------------------|
|------3---4---5------------------------------------------------------------|
|--3-3---3---3---3--3-------------------------------------------------------|
   . .   .   .   .  .
Repeat:2x
(do the end of the first part of the bridge when doing the second run of the second part 
of the bridge)
Repeat Prechorus
Repeat chorus(not exact on how many times)
Repeat Bridge

Ending Rhythm(this is just the chorus rhythm at the F#m Chord)
|------------------------------------------------------------------------|
|------------------------------------------------------------------------|
|-------4-4-------------------------4------------------------------------|
|---4---2-4-------------4-----------4------------------------------------|
|---4-----2--0-2-4-2-0--4-----------2------------------------------------|
|---2-2-----------------2--2-2-2--2--------------------------------------|

|----------------------------------------------------------------------|
|----------------------------------------------------------------------|
|------4-4-------------------------------------------------------------|
|---4--2-4-------------4----------2------------------------------------|
|---4----2--0-2-4-2-0--4----------2------------------------------------|
|---2-2----------------2--2-2-2-2-0------------------------------------|
 Repeat
That's It I hope you like it.  Jesus Rocks
Show more