• Song:

    We Know What's Right

  • Artist:

    Whitecross

(intro e refr?o)
                                                       E   D  E
E | -------------- | --------------- | ----------- | -------- | -0-----------
B | -------------- | --------------- | ----------- | -------- | -0-----------
G | -------------- | -----------2-4- | ------2-4-- | ---2---- | -1-----------
D | ---2h4p2h4p2h4 | --14\-2h4--2-4- | --2-4-2-4-- | -4-2-4-2 | -2---4--6----
A | -------------- | --14\-2h4------ | --2-4------ | -4---4-2 | -2---5--7----
E | -------------- | --------------- | ----------- | -------- | -0-----------

                                         E   D  E  A/E E
E | --------------- | ----------- | -------- | -0---------------
B | --------------- | ----------- | -------- | -0---------------
G | -------2-4----- | ------2-4-- | ---2---- | -1---------------
D | --2h4--2-4----- | --2-4-2-4-- | -4-2-4-2 | -2---4--6---7-6--
A | --2h4---------- | --2-4------ | -4---4-2 | -2---5--7---7-7--
E | --------------- | ----------- | -------- | -0---------------

(verso)
                                                E        D   A   E   F#
E | -------- | ------------ | --------- | ----------- | --0---- | --------------------------
B | -------- | ------------ | --------- | ----------- | --0---- | --------------------------
G | -------- | -b2--------- | --------- | -b2-------- | --1---- | ---2---2------------------
D | -2h4-4-4 | ----2--4-4-- | --2h4-4-4 | ----2--4-4- | --2---- | ---0---2---2---4----------
A | -------- | ------------ | --------- | ----------- | --2---- | -------0---2---4----------
E | -2------ | --2--------- | --2------ | --2-------- | --0---- | -----------0---2----------

    F# riff(for the Pre-chorus)
E | ----- | ------------ | -------------------- | ------
B | ----- | ------------ | -----------------14- | ------
G | ----- | -----2--4/6- | ---------14--16--14- | ------
D | --4-- | --4--2--2/4- | ---------14--16----- | ------
A | --4-- | --4--------- | ---4--4------------- | ------
E | --2-- | ------------ | -0-2--2------------- | ------

(ponte)
    A                          B                               A
E | -------------------------------- | ---------- | --------------------
B | -------------------------------- | ---------- | --b4----------------
G | --2--------------------------4-- | ---------- | -----4-----------2--
D | --2--------------------------4-- | ---------- | -------4-2-----2--repeat
A | --0--------------------------2-- | ---------- | --------------2--0--
E | -------------------------------- | ---------- | --------------------

Your love for the city
                     E
Full of sin,what a pity
                      D      A
When you arrive, they don't know
D    E   F#
who you are

You came unto your own
                          E
God's love will know be shown
                             D
They don't know You're the bright
 A  D   E    F#
and morning star

(pr?-refr?o)
B      E               F# (riff)
  So blinded by their law
A       E          B          D
  Their hope will burn like straw

(refr?o)
We know what's right

We'll stand and fight
E                 D  E
It's time to rise

Come on and see the victory
E                 D E A/E  E
before your eyes

(ponte)
A
  If you know so well
      B
  the right thing to do
A                       B
  For you not to do is wrong


(guitarra 1)
E | ------------------- | -------------------------------
B | ------------------- | -------------------------------
G | ----------2-------- | ----------2--------------------
D | --------2---4--2--2 | --------2---4--2--2------------
A | --2--4------------- | --2--4-------------------------
E | ------------------- | -------------------------------

(guitarra 2)
E | ------------------- | -------------------------------
B | ------------------- | -------------------------------
G | ----------2----2-6- | --------6-(b9)6------6-----------
D | --------2--------4- | --6--7---------(b9)--------------
A | --2--4------------- | -------------------------------
E | ------------------- | -------------------------------
Show more